  0
SECTION
  2
HEADER
  9
$ACADVER
  1
AC1009
  9
$INSBASE
 10
0.0
 20
0.0
 30
0.0
  9
$EXTMIN
 10
2523.1769539278421
 20
1077.1762949320289
 30
0.0
  9
$EXTMAX
 10
4088.5964313209729
 20
1824.3761750170961
 30
0.0
  9
$LIMMIN
 10
0.0
 20
0.0
  9
$LIMMAX
 10
420.0
 20
297.0
  9
$ORTHOMODE
 70
     0
  9
$REGENMODE
 70
     1
  9
$FILLMODE
 70
     1
  9
$QTEXTMODE
 70
     0
  9
$MIRRTEXT
 70
     0
  9
$DRAGMODE
 70
     2
  9
$LTSCALE
 40
1.0
  9
$OSMODE
 70
    37
  9
$ATTMODE
 70
     1
  9
$TEXTSIZE
 40
2.5
  9
$TRACEWID
 40
1.0
  9
$TEXTSTYLE
  7
STANDARD
  9
$CLAYER
  8
0
  9
$CELTYPE
  6
ACAD_ISO02W100
  9
$CECOLOR
 62
   256
  9
$DIMSCALE
 40
1.0
  9
$DIMASZ
 40
2.5
  9
$DIMEXO
 40
0.625
  9
$DIMDLI
 40
3.75
  9
$DIMRND
 40
0.0
  9
$DIMDLE
 40
0.0
  9
$DIMEXE
 40
1.25
  9
$DIMTP
 40
0.0
  9
$DIMTM
 40
0.0
  9
$DIMTXT
 40
2.5
  9
$DIMCEN
 40
2.5
  9
$DIMTSZ
 40
0.0
  9
$DIMTOL
 70
     0
  9
$DIMLIM
 70
     0
  9
$DIMTIH
 70
     0
  9
$DIMTOH
 70
     0
  9
$DIMSE1
 70
     0
  9
$DIMSE2
 70
     0
  9
$DIMTAD
 70
     1
  9
$DIMZIN
 70
     8
  9
$DIMBLK
  1

  9
$DIMASO
 70
     1
  9
$DIMSHO
 70
     1
  9
$DIMPOST
  1

  9
$DIMAPOST
  1

  9
$DIMALT
 70
     0
  9
$DIMALTD
 70
     3
  9
$DIMALTF
 40
0.03937007874016
  9
$DIMLFAC
 40
1.0
  9
$DIMTOFL
 70
     1
  9
$DIMTVP
 40
0.0
  9
$DIMTIX
 70
     0
  9
$DIMSOXD
 70
     0
  9
$DIMSAH
 70
     0
  9
$DIMBLK1
  1

  9
$DIMBLK2
  1

  9
$DIMSTYLE
  2
ISO-25
  9
$DIMCLRD
 70
     0
  9
$DIMCLRE
 70
     0
  9
$DIMCLRT
 70
     0
  9
$DIMTFAC
 40
1.0
  9
$DIMGAP
 40
0.625
  9
$LUNITS
 70
     2
  9
$LUPREC
 70
     4
  9
$SKETCHINC
 40
1.0
  9
$FILLETRAD
 40
0.0
  9
$AUNITS
 70
     0
  9
$AUPREC
 70
     0
  9
$MENU
  1
.
  9
$ELEVATION
 40
0.0
  9
$PELEVATION
 40
0.0
  9
$THICKNESS
 40
0.0
  9
$LIMCHECK
 70
     0
  9
$BLIPMODE
 70
     0
  9
$CHAMFERA
 40
0.0
  9
$CHAMFERB
 40
0.0
  9
$SKPOLY
 70
     0
  9
$TDCREATE
 40
2457011.806447709
  9
$TDUPDATE
 40
2457011.8266969901
  9
$TDINDWG
 40
0.0202506713
  9
$TDUSRTIMER
 40
0.020250625
  9
$USRTIMER
 70
     1
  9
$ANGBASE
 50
0.0
  9
$ANGDIR
 70
     0
  9
$PDMODE
 70
     0
  9
$PDSIZE
 40
0.0
  9
$PLINEWID
 40
0.0
  9
$COORDS
 70
     1
  9
$SPLFRAME
 70
     0
  9
$SPLINETYPE
 70
     6
  9
$SPLINESEGS
 70
     8
  9
$ATTDIA
 70
     0
  9
$ATTREQ
 70
     1
  9
$HANDLING
 70
     1
  9
$HANDSEED
  5
1001
  9
$SURFTAB1
 70
     6
  9
$SURFTAB2
 70
     6
  9
$SURFTYPE
 70
     6
  9
$SURFU
 70
     6
  9
$SURFV
 70
     6
  9
$UCSNAME
  2

  9
$UCSORG
 10
0.0
 20
0.0
 30
0.0
  9
$UCSXDIR
 10
1.0
 20
0.0
 30
0.0
  9
$UCSYDIR
 10
0.0
 20
1.0
 30
0.0
  9
$PUCSNAME
  2

  9
$PUCSORG
 10
0.0
 20
0.0
 30
0.0
  9
$PUCSXDIR
 10
1.0
 20
0.0
 30
0.0
  9
$PUCSYDIR
 10
0.0
 20
1.0
 30
0.0
  9
$USERI1
 70
     0
  9
$USERI2
 70
     0
  9
$USERI3
 70
     0
  9
$USERI4
 70
     0
  9
$USERI5
 70
     0
  9
$USERR1
 40
0.0
  9
$USERR2
 40
0.0
  9
$USERR3
 40
0.0
  9
$USERR4
 40
0.0
  9
$USERR5
 40
0.0
  9
$WORLDVIEW
 70
     1
  9
$SHADEDGE
 70
     3
  9
$SHADEDIF
 70
    70
  9
$TILEMODE
 70
     1
  9
$MAXACTVP
 70
    64
  9
$PLIMCHECK
 70
     0
  9
$PEXTMIN
 10
0.0
 20
0.0
 30
0.0
  9
$PEXTMAX
 10
0.0
 20
0.0
 30
0.0
  9
$PLIMMIN
 10
0.0
 20
0.0
  9
$PLIMMAX
 10
12.0
 20
9.0
  9
$UNITMODE
 70
     0
  9
$VISRETAIN
 70
     1
  9
$PLINEGEN
 70
     0
  9
$PSLTSCALE
 70
     1
  0
ENDSEC
  0
SECTION
  2
TABLES
  0
TABLE
  2
VPORT
 70
     1
  0
VPORT
  2
*ACTIVE
 70
     0
 10
0.0
 20
0.0
 11
1.0
 21
1.0
 12
2966.0269123197559
 22
1416.236566172804
 13
0.0
 23
0.0
 14
10.0
 24
10.0
 15
10.0
 25
10.0
 16
0.0
 26
0.0
 36
1.0
 17
0.0
 27
0.0
 37
0.0
 40
471.30827965966728
 41
2.085714285714285
 42
50.0
 43
0.0
 44
0.0
 50
0.0
 51
0.0
 71
     0
 72
  1000
 73
     1
 74
     3
 75
     0
 76
     1
 77
     0
 78
     0
  0
ENDTAB
  0
TABLE
  2
LTYPE
 70
     3
  0
LTYPE
  2
CONTINUOUS
 70
     0
  3
Solid line
 72
    65
 73
     0
 40
0.0
  0
LTYPE
  2
ACAD_ISO02W100
 70
     0
  3
ISO dash __ __ __ __ __ __ __ __ __ __ __ __ __
 72
    65
 73
     2
 40
15.0
 49
12.0
 49
-3.0
  0
ENDTAB
  0
TABLE
  2
LAYER
 70
     2
  0
LAYER
  2
0
 70
     0
 62
     7
  6
CONTINUOUS
  0
LAYER
  2
LAYER1
 70
     0
 62
    51
  6
ACAD_ISO02W100
  0
ENDTAB
  0
TABLE
  2
STYLE
 70
     3
  0
STYLE
  2
STANDARD
 70
     0
 40
0.0
 41
1.0
 50
0.0
 71
     0
 42
2.5
  3
txt
  4

  0
STYLE
  2
ANNOTATIVE
 70
     0
 40
0.0
 41
1.0
 50
0.0
 71
     0
 42
2.5
  3
txt
  4

  0
STYLE
  2

 70
     1
 40
0.0
 41
1.0
 50
0.0
 71
     0
 42
2.5
  3
ltypeshp.shx
  4

  0
ENDTAB
  0
TABLE
  2
VIEW
 70
     3
  0
ENDTAB
  0
TABLE
  2
UCS
 70
     0
  0
ENDTAB
  0
TABLE
  2
APPID
 70
    11
  0
APPID
  2
ACAD
 70
     0
  0
APPID
  2
ACAD_PSEXT
 70
     0
  0
APPID
  2
ACADANNOPO
 70
     0
  0
APPID
  2
ACADANNOTATIVE
 70
     0
  0
APPID
  2
ACAD_DSTYLE_DIMJAG
 70
     0
  0
APPID
  2
ACAD_DSTYLE_DIMTALN
 70
     0
  0
APPID
  2
ACAD_MLEADERVER
 70
     0
  0
APPID
  2
ACAD_NAV_VCDISPLAY
 70
     0
  0
APPID
  2
ACAD_EXEMPT_FROM_CAD_STANDARDS
 70
     0
  0
APPID
  2
ACAECLAYERSTANDARD
 70
     0
  0
APPID
  2
ACCMTRANSPARENCY
 70
     0
  0
ENDTAB
  0
TABLE
  2
DIMSTYLE
 70
     4
  0
DIMSTYLE
  2
STANDARD
 70
     0
  3

  4

  5

  6

  7

 40
1.0
 41
0.18
 42
0.0625
 43
0.38
 44
0.18
 45
0.0
 46
0.0
 47
0.0
 48
0.0
140
0.18
141
0.09
142
0.0
143
25.399999999999999
144
1.0
145
0.0
146
1.0
147
0.09
 71
     0
 72
     0
 73
     1
 74
     1
 75
     0
 76
     0
 77
     0
 78
     0
170
     0
171
     2
172
     0
173
     0
174
     0
175
     0
176
     0
177
     0
178
     0
  0
DIMSTYLE
  2
ANNOTATIVE
 70
     0
  3

  4

  5

  6

  7

 40
0.0
 41
2.5
 42
0.625
 43
3.75
 44
1.25
 45
0.0
 46
0.0
 47
0.0
 48
0.0
140
2.5
141
2.5
142
0.0
143
0.03937007874016
144
1.0
145
0.0
146
1.0
147
0.625
 71
     0
 72
     0
 73
     0
 74
     0
 75
     0
 76
     0
 77
     1
 78
     8
170
     0
171
     3
172
     1
173
     0
174
     0
175
     0
176
     0
177
     0
178
     0
  0
DIMSTYLE
  2
ISO-25
 70
     0
  3

  4

  5

  6

  7

 40
1.0
 41
2.5
 42
0.625
 43
3.75
 44
1.25
 45
0.0
 46
0.0
 47
0.0
 48
0.0
140
2.5
141
2.5
142
0.0
143
0.03937007874016
144
1.0
145
0.0
146
1.0
147
0.625
 71
     0
 72
     0
 73
     0
 74
     0
 75
     0
 76
     0
 77
     1
 78
     8
170
     0
171
     3
172
     1
173
     0
174
     0
175
     0
176
     0
177
     0
178
     0
  0
ENDTAB
  0
ENDSEC
  0
SECTION
  2
BLOCKS
  0
BLOCK
  8
0
  2
$MODEL_SPACE
 70
     0
 10
0.0
 20
0.0
 30
0.0
  3
$MODEL_SPACE
  1

  0
ENDBLK
  5
21
  8
0
  0
BLOCK
 67
     1
  8
0
  2
$PAPER_SPACE
 70
     0
 10
0.0
 20
0.0
 30
0.0
  3
$PAPER_SPACE
  1

  0
ENDBLK
  5
D5
 67
     1
  8
0
  0
BLOCK
  8
0
  2
A$C38B37407
 70
     0
 10
0.0
 20
0.0
 30
0.0
  3
A$C38B37407
  1

  0
CIRCLE
  5
F6F
  8
0
  6
CONTINUOUS
 62
     7
 10
11.00000027614624
 20
10.999998255108951
 30
0.0
 40
11.0
  0
ENDBLK
  5
F72
  8
0
  0
ENDSEC
  0
SECTION
  2
ENTITIES
  0
ARC
  5
2AF
  8
0
  6
CONTINUOUS
 62
     7
 10
2892.3045524435338
 20
1487.650031678141
 30
0.0
 40
0.5
 50
0.0
 51
180.0
  0
LINE
  5
2B0
  8
0
  6
CONTINUOUS
 62
     7
 10
2892.8045524435338
 20
1487.650031678141
 30
0.0
 11
2892.8045524435338
 21
1486.254887908141
 31
0.0
  0
LINE
  5
2B1
  8
0
  6
CONTINUOUS
 62
     7
 10
2892.8045524435338
 20
1486.254887908141
 30
0.0
 11
2903.1060921066342
 21
1488.6739395542411
 31
0.0
  0
LINE
  5
2B2
  8
0
  6
CONTINUOUS
 62
     7
 10
2903.1060921066342
 20
1488.6739395542411
 30
0.0
 11
2903.1060921066342
 21
1492.120031678141
 31
0.0
  0
LINE
  5
2B3
  8
0
  6
CONTINUOUS
 62
     7
 10
2900.306092106634
 20
1492.120031678141
 30
0.0
 11
2903.1060921066342
 21
1492.120031678141
 31
0.0
  0
LINE
  5
2B4
  8
0
  6
CONTINUOUS
 62
     7
 10
2900.306092106634
 20
1514.120031678141
 30
0.0
 11
2900.306092106634
 21
1492.120031678141
 31
0.0
  0
LINE
  5
2B5
  8
0
  6
CONTINUOUS
 62
     7
 10
2900.306092106634
 20
1514.120031678141
 30
0.0
 11
2903.1060921066342
 21
1514.120031678141
 31
0.0
  0
LINE
  5
2B6
  8
0
  6
CONTINUOUS
 62
     7
 10
2903.1060921066342
 20
1517.5661238020409
 30
0.0
 11
2903.1060921066342
 21
1514.120031678141
 31
0.0
  0
LINE
  5
2B7
  8
0
  6
CONTINUOUS
 62
     7
 10
2899.064552443534
 20
1518.515175448141
 30
0.0
 11
2903.1060921066342
 21
1517.5661238020409
 31
0.0
  0
LINE
  5
2B8
  8
0
  6
CONTINUOUS
 62
     7
 10
2899.064552443534
 20
1517.120031678141
 30
0.0
 11
2899.064552443534
 21
1518.515175448141
 31
0.0
  0
ARC
  5
2B9
  8
0
  6
CONTINUOUS
 62
     7
 10
2898.564552443534
 20
1517.120031678141
 30
0.0
 40
0.5
 50
180.0
 51
0.0
  0
LINE
  5
2BA
  8
0
  6
CONTINUOUS
 62
     7
 10
2898.064552443534
 20
1517.120031678141
 30
0.0
 11
2898.064552443534
 21
1518.7499997292409
 31
0.0
  0
LINE
  5
2BB
  8
0
  6
CONTINUOUS
 62
     7
 10
2886.544552443534
 20
1521.4551754481411
 30
0.0
 11
2898.064552443534
 21
1518.7499997292409
 31
0.0
  0
LINE
  5
2BC
  8
0
  6
CONTINUOUS
 62
     7
 10
2886.544552443534
 20
1520.0600316781411
 30
0.0
 11
2886.544552443534
 21
1521.4551754481411
 31
0.0
  0
ARC
  5
2BD
  8
0
  6
CONTINUOUS
 62
     7
 10
2886.044552443534
 20
1520.0600316781411
 30
0.0
 40
0.5
 50
180.0
 51
0.0
  0
LINE
  5
2BE
  8
0
  6
CONTINUOUS
 62
     7
 10
2885.544552443534
 20
1520.0600316781411
 30
0.0
 11
2885.544552443534
 21
1521.689999729241
 31
0.0
  0
LINE
  5
2BF
  8
0
  6
CONTINUOUS
 62
     7
 10
2874.3445524435342
 20
1524.320031678141
 30
0.0
 11
2885.544552443534
 21
1521.689999729241
 31
0.0
  0
LINE
  5
2C0
  8
0
  6
CONTINUOUS
 62
     7
 10
2874.024552443534
 20
1524.320031678141
 30
0.0
 11
2874.3445524435342
 21
1524.320031678141
 31
0.0
  0
LINE
  5
2C1
  8
0
  6
CONTINUOUS
 62
     7
 10
2874.024552443534
 20
1523.0000316781411
 30
0.0
 11
2874.024552443534
 21
1524.320031678141
 31
0.0
  0
ARC
  5
2C2
  8
0
  6
CONTINUOUS
 62
     7
 10
2873.524552443534
 20
1523.0000316781411
 30
0.0
 40
0.5
 50
180.0
 51
0.0
  0
LINE
  5
2C3
  8
0
  6
CONTINUOUS
 62
     7
 10
2873.024552443534
 20
1523.0000316781411
 30
0.0
 11
2873.024552443534
 21
1524.320031678141
 31
0.0
  0
LINE
  5
2C4
  8
0
  6
CONTINUOUS
 62
     7
 10
2861.5045524435341
 20
1524.320031678141
 30
0.0
 11
2873.024552443534
 21
1524.320031678141
 31
0.0
  0
LINE
  5
2C5
  8
0
  6
CONTINUOUS
 62
     7
 10
2861.5045524435341
 20
1523.0000316781411
 30
0.0
 11
2861.5045524435341
 21
1524.320031678141
 31
0.0
  0
ARC
  5
2C6
  8
0
  6
CONTINUOUS
 62
     7
 10
2861.0045524435341
 20
1523.0000316781411
 30
0.0
 40
0.5
 50
180.0
 51
0.0
  0
LINE
  5
2C7
  8
0
  6
CONTINUOUS
 62
     7
 10
2860.5045524435341
 20
1523.0000316781411
 30
0.0
 11
2860.5045524435341
 21
1524.320031678141
 31
0.0
  0
LINE
  5
2C8
  8
0
  6
CONTINUOUS
 62
     7
 10
2848.9845524435341
 20
1524.320031678141
 30
0.0
 11
2860.5045524435341
 21
1524.320031678141
 31
0.0
  0
LINE
  5
2C9
  8
0
  6
CONTINUOUS
 62
     7
 10
2848.9845524435341
 20
1523.0000316781411
 30
0.0
 11
2848.9845524435341
 21
1524.320031678141
 31
0.0
  0
ARC
  5
2CA
  8
0
  6
CONTINUOUS
 62
     7
 10
2848.484552443535
 20
1523.0000316781411
 30
0.0
 40
0.5
 50
180.0
 51
0.0
  0
LINE
  5
2CB
  8
0
  6
CONTINUOUS
 62
     7
 10
2847.9845524435341
 20
1523.0000316781411
 30
0.0
 11
2847.9845524435341
 21
1524.320031678141
 31
0.0
  0
LINE
  5
2CC
  8
0
  6
CONTINUOUS
 62
     7
 10
2836.4645524435341
 20
1524.320031678141
 30
0.0
 11
2847.9845524435341
 21
1524.320031678141
 31
0.0
  0
LINE
  5
2CD
  8
0
  6
CONTINUOUS
 62
     7
 10
2836.4645524435341
 20
1523.0000316781411
 30
0.0
 11
2836.4645524435341
 21
1524.320031678141
 31
0.0
  0
ARC
  5
2CE
  8
0
  6
CONTINUOUS
 62
     7
 10
2835.9645524435341
 20
1523.0000316781411
 30
0.0
 40
0.5000000000000142
 50
180.0
 51
0.0
  0
LINE
  5
2CF
  8
0
  6
CONTINUOUS
 62
     7
 10
2835.4645524435341
 20
1523.0000316781411
 30
0.0
 11
2835.4645524435341
 21
1524.320031678141
 31
0.0
  0
LINE
  5
2D0
  8
0
  6
CONTINUOUS
 62
     7
 10
2823.9445524435332
 20
1524.320031678141
 30
0.0
 11
2835.4645524435341
 21
1524.320031678141
 31
0.0
  0
LINE
  5
2D1
  8
0
  6
CONTINUOUS
 62
     7
 10
2823.9445524435332
 20
1523.0000316781411
 30
0.0
 11
2823.9445524435332
 21
1524.320031678141
 31
0.0
  0
ARC
  5
2D2
  8
0
  6
CONTINUOUS
 62
     7
 10
2823.4445524435341
 20
1523.0000316781411
 30
0.0
 40
0.5
 50
180.0
 51
0.0
  0
LINE
  5
2D3
  8
0
  6
CONTINUOUS
 62
     7
 10
2822.9445524435341
 20
1523.0000316781411
 30
0.0
 11
2822.9445524435341
 21
1524.320031678141
 31
0.0
  0
LINE
  5
2D4
  8
0
  6
CONTINUOUS
 62
     7
 10
2811.4245524435341
 20
1524.320031678141
 30
0.0
 11
2822.9445524435341
 21
1524.320031678141
 31
0.0
  0
LINE
  5
2D5
  8
0
  6
CONTINUOUS
 62
     7
 10
2811.4245524435341
 20
1523.0000316781411
 30
0.0
 11
2811.4245524435341
 21
1524.320031678141
 31
0.0
  0
ARC
  5
2D6
  8
0
  6
CONTINUOUS
 62
     7
 10
2810.9245524435341
 20
1523.0000316781411
 30
0.0
 40
0.5000000000000142
 50
180.0
 51
0.0
  0
LINE
  5
2D7
  8
0
  6
CONTINUOUS
 62
     7
 10
2810.4245524435341
 20
1523.0000316781411
 30
0.0
 11
2810.4245524435341
 21
1524.320031678141
 31
0.0
  0
LINE
  5
2D8
  8
0
  6
CONTINUOUS
 62
     7
 10
2798.9045524435342
 20
1524.320031678141
 30
0.0
 11
2810.4245524435341
 21
1524.320031678141
 31
0.0
  0
LINE
  5
2D9
  8
0
  6
CONTINUOUS
 62
     7
 10
2798.9045524435342
 20
1523.0000316781411
 30
0.0
 11
2798.9045524435342
 21
1524.320031678141
 31
0.0
  0
ARC
  5
2DA
  8
0
  6
CONTINUOUS
 62
     7
 10
2798.4045524435342
 20
1523.0000316781411
 30
0.0
 40
0.5
 50
180.0
 51
0.0
  0
LINE
  5
2DB
  8
0
  6
CONTINUOUS
 62
     7
 10
2797.9045524435342
 20
1523.0000316781411
 30
0.0
 11
2797.9045524435342
 21
1524.320031678141
 31
0.0
  0
LINE
  5
2DC
  8
0
  6
CONTINUOUS
 62
     7
 10
2786.3845524435342
 20
1524.320031678141
 30
0.0
 11
2797.9045524435342
 21
1524.320031678141
 31
0.0
  0
LINE
  5
2DD
  8
0
  6
CONTINUOUS
 62
     7
 10
2786.3845524435342
 20
1523.0000316781411
 30
0.0
 11
2786.3845524435342
 21
1524.320031678141
 31
0.0
  0
ARC
  5
2DE
  8
0
  6
CONTINUOUS
 62
     7
 10
2785.8845524435342
 20
1523.0000316781411
 30
0.0
 40
0.5
 50
180.0
 51
0.0
  0
LINE
  5
2DF
  8
0
  6
CONTINUOUS
 62
     7
 10
2785.3845524435342
 20
1523.0000316781411
 30
0.0
 11
2785.3845524435342
 21
1524.320031678141
 31
0.0
  0
LINE
  5
2E0
  8
0
  6
CONTINUOUS
 62
     7
 10
2773.8645524435342
 20
1524.320031678141
 30
0.0
 11
2785.3845524435342
 21
1524.320031678141
 31
0.0
  0
LINE
  5
2E1
  8
0
  6
CONTINUOUS
 62
     7
 10
2773.8645524435342
 20
1523.0000316781411
 30
0.0
 11
2773.8645524435342
 21
1524.320031678141
 31
0.0
  0
ARC
  5
2E2
  8
0
  6
CONTINUOUS
 62
     7
 10
2773.3645524435342
 20
1523.0000316781411
 30
0.0
 40
0.5
 50
180.0
 51
0.0
  0
LINE
  5
2E3
  8
0
  6
CONTINUOUS
 62
     7
 10
2772.8645524435342
 20
1523.0000316781411
 30
0.0
 11
2772.8645524435342
 21
1524.320031678141
 31
0.0
  0
LINE
  5
2E4
  8
0
  6
CONTINUOUS
 62
     7
 10
2761.3445524435342
 20
1524.320031678141
 30
0.0
 11
2772.8645524435342
 21
1524.320031678141
 31
0.0
  0
LINE
  5
2E5
  8
0
  6
CONTINUOUS
 62
     7
 10
2761.3445524435342
 20
1523.0000316781411
 30
0.0
 11
2761.3445524435342
 21
1524.320031678141
 31
0.0
  0
ARC
  5
2E6
  8
0
  6
CONTINUOUS
 62
     7
 10
2760.8445524435342
 20
1523.0000316781411
 30
0.0
 40
0.5000000000000071
 50
180.0
 51
0.0
  0
LINE
  5
2E7
  8
0
  6
CONTINUOUS
 62
     7
 10
2760.3445524435342
 20
1523.0000316781411
 30
0.0
 11
2760.3445524435342
 21
1524.320031678141
 31
0.0
  0
LINE
  5
2E8
  8
0
  6
CONTINUOUS
 62
     7
 10
2748.8245524435338
 20
1524.320031678141
 30
0.0
 11
2760.3445524435342
 21
1524.320031678141
 31
0.0
  0
LINE
  5
2E9
  8
0
  6
CONTINUOUS
 62
     7
 10
2748.8245524435338
 20
1523.0000316781411
 30
0.0
 11
2748.8245524435338
 21
1524.320031678141
 31
0.0
  0
ARC
  5
2EA
  8
0
  6
CONTINUOUS
 62
     7
 10
2748.3245524435338
 20
1523.0000316781411
 30
0.0
 40
0.5000000000000036
 50
180.0
 51
0.0
  0
LINE
  5
2EB
  8
0
  6
CONTINUOUS
 62
     7
 10
2747.8245524435338
 20
1523.0000316781411
 30
0.0
 11
2747.8245524435338
 21
1524.320031678141
 31
0.0
  0
LINE
  5
2EC
  8
0
  6
CONTINUOUS
 62
     7
 10
2741.2623541988341
 20
1524.320031678141
 30
0.0
 11
2747.8245524435338
 21
1524.320031678141
 31
0.0
  0
ARC
  5
2ED
  8
0
  6
CONTINUOUS
 62
     7
 10
2741.2623541988341
 20
1522.320031678141
 30
0.0
 40
2.0
 50
90.0
 51
172.8979856777996
  0
ARC
  5
2EE
  8
0
  6
CONTINUOUS
 62
     7
 10
2735.8045524435338
 20
1523.0000316781411
 30
0.0
 40
3.5
 50
270.0
 51
352.89798567779962
  0
LINE
  5
2EF
  8
0
  6
CONTINUOUS
 62
     7
 10
2735.8045524435338
 20
1519.5000316781411
 30
0.0
 11
2730.8045524435338
 21
1519.5000316781411
 31
0.0
  0
LINE
  5
2F0
  8
0
  6
CONTINUOUS
 62
     7
 10
2730.8045524435338
 20
1514.120031678141
 30
0.0
 11
2730.8045524435338
 21
1519.5000316781411
 31
0.0
  0
LINE
  5
2F1
  8
0
  6
CONTINUOUS
 62
     7
 10
2733.604552443534
 20
1514.120031678141
 30
0.0
 11
2730.8045524435338
 21
1514.120031678141
 31
0.0
  0
LINE
  5
2F2
  8
0
  6
CONTINUOUS
 62
     7
 10
2733.604552443534
 20
1514.120031678141
 30
0.0
 11
2733.604552443534
 21
1504.4700316781409
 31
0.0
  0
LINE
  5
2F3
  8
0
  6
CONTINUOUS
 62
     7
 10
2733.604552443534
 20
1504.4700316781409
 30
0.0
 11
2823.604552443534
 21
1504.4700316781409
 31
0.0
  0
LINE
  5
2F4
  8
0
  6
CONTINUOUS
 62
     7
 10
2823.604552443534
 20
1504.4700316781409
 30
0.0
 11
2823.604552443534
 21
1501.7700316781411
 31
0.0
  0
LINE
  5
2F5
  8
0
  6
CONTINUOUS
 62
     7
 10
2733.604552443534
 20
1501.7700316781411
 30
0.0
 11
2823.604552443534
 21
1501.7700316781411
 31
0.0
  0
LINE
  5
2F6
  8
0
  6
CONTINUOUS
 62
     7
 10
2733.604552443534
 20
1501.7700316781411
 30
0.0
 11
2733.604552443534
 21
1492.120031678141
 31
0.0
  0
LINE
  5
2F7
  8
0
  6
CONTINUOUS
 62
     7
 10
2733.604552443534
 20
1492.120031678141
 30
0.0
 11
2730.8045524435338
 21
1492.120031678141
 31
0.0
  0
LINE
  5
2F8
  8
0
  6
CONTINUOUS
 62
     7
 10
2730.8045524435338
 20
1481.920031678141
 30
0.0
 11
2730.8045524435338
 21
1492.120031678141
 31
0.0
  0
LINE
  5
2F9
  8
0
  6
CONTINUOUS
 62
     7
 10
2730.8045524435338
 20
1481.920031678141
 30
0.0
 11
2741.564552443534
 21
1481.920031678141
 31
0.0
  0
LINE
  5
2FA
  8
0
  6
CONTINUOUS
 62
     7
 10
2741.564552443534
 20
1483.2400316781409
 30
0.0
 11
2741.564552443534
 21
1481.920031678141
 31
0.0
  0
ARC
  5
2FB
  8
0
  6
CONTINUOUS
 62
     7
 10
2742.064552443534
 20
1483.2400316781409
 30
0.0
 40
0.5000000000000018
 50
0.0
 51
180.0
  0
LINE
  5
2FC
  8
0
  6
CONTINUOUS
 62
     7
 10
2742.564552443534
 20
1483.2400316781409
 30
0.0
 11
2742.564552443534
 21
1481.920031678141
 31
0.0
  0
LINE
  5
2FD
  8
0
  6
CONTINUOUS
 62
     7
 10
2742.564552443534
 20
1481.920031678141
 30
0.0
 11
2754.084552443534
 21
1481.920031678141
 31
0.0
  0
LINE
  5
2FE
  8
0
  6
CONTINUOUS
 62
     7
 10
2754.084552443534
 20
1483.2400316781409
 30
0.0
 11
2754.084552443534
 21
1481.920031678141
 31
0.0
  0
ARC
  5
2FF
  8
0
  6
CONTINUOUS
 62
     7
 10
2754.584552443534
 20
1483.2400316781409
 30
0.0
 40
0.5000000000000036
 50
0.0
 51
180.0
  0
LINE
  5
300
  8
0
  6
CONTINUOUS
 62
     7
 10
2755.0845524435349
 20
1483.2400316781409
 30
0.0
 11
2755.0845524435349
 21
1481.920031678141
 31
0.0
  0
LINE
  5
301
  8
0
  6
CONTINUOUS
 62
     7
 10
2755.0845524435349
 20
1481.920031678141
 30
0.0
 11
2766.604552443534
 21
1481.920031678141
 31
0.0
  0
LINE
  5
302
  8
0
  6
CONTINUOUS
 62
     7
 10
2766.604552443534
 20
1483.2400316781409
 30
0.0
 11
2766.604552443534
 21
1481.920031678141
 31
0.0
  0
ARC
  5
303
  8
0
  6
CONTINUOUS
 62
     7
 10
2767.104552443534
 20
1483.2400316781409
 30
0.0
 40
0.5000000000000071
 50
0.0
 51
180.0
  0
LINE
  5
304
  8
0
  6
CONTINUOUS
 62
     7
 10
2767.604552443534
 20
1483.2400316781409
 30
0.0
 11
2767.604552443534
 21
1481.920031678141
 31
0.0
  0
LINE
  5
305
  8
0
  6
CONTINUOUS
 62
     7
 10
2767.604552443534
 20
1481.920031678141
 30
0.0
 11
2779.124552443534
 21
1481.920031678141
 31
0.0
  0
LINE
  5
306
  8
0
  6
CONTINUOUS
 62
     7
 10
2779.124552443534
 20
1483.2400316781409
 30
0.0
 11
2779.124552443534
 21
1481.920031678141
 31
0.0
  0
ARC
  5
307
  8
0
  6
CONTINUOUS
 62
     7
 10
2779.624552443534
 20
1483.2400316781409
 30
0.0
 40
0.5
 50
0.0
 51
180.0
  0
LINE
  5
308
  8
0
  6
CONTINUOUS
 62
     7
 10
2780.124552443534
 20
1483.2400316781409
 30
0.0
 11
2780.124552443534
 21
1481.920031678141
 31
0.0
  0
LINE
  5
309
  8
0
  6
CONTINUOUS
 62
     7
 10
2780.124552443534
 20
1481.920031678141
 30
0.0
 11
2791.6445524435339
 21
1481.920031678141
 31
0.0
  0
LINE
  5
30A
  8
0
  6
CONTINUOUS
 62
     7
 10
2791.6445524435339
 20
1483.2400316781409
 30
0.0
 11
2791.6445524435339
 21
1481.920031678141
 31
0.0
  0
ARC
  5
30B
  8
0
  6
CONTINUOUS
 62
     7
 10
2792.1445524435339
 20
1483.2400316781409
 30
0.0
 40
0.5
 50
0.0
 51
180.0
  0
LINE
  5
30C
  8
0
  6
CONTINUOUS
 62
     7
 10
2792.6445524435339
 20
1483.2400316781409
 30
0.0
 11
2792.6445524435339
 21
1481.920031678141
 31
0.0
  0
LINE
  5
30D
  8
0
  6
CONTINUOUS
 62
     7
 10
2792.6445524435339
 20
1481.920031678141
 30
0.0
 11
2804.1645524435339
 21
1481.920031678141
 31
0.0
  0
LINE
  5
30E
  8
0
  6
CONTINUOUS
 62
     7
 10
2804.1645524435339
 20
1483.2400316781409
 30
0.0
 11
2804.1645524435339
 21
1481.920031678141
 31
0.0
  0
ARC
  5
30F
  8
0
  6
CONTINUOUS
 62
     7
 10
2804.6645524435339
 20
1483.2400316781409
 30
0.0
 40
0.5
 50
0.0
 51
180.0
  0
LINE
  5
310
  8
0
  6
CONTINUOUS
 62
     7
 10
2805.1645524435339
 20
1483.2400316781409
 30
0.0
 11
2805.1645524435339
 21
1481.920031678141
 31
0.0
  0
LINE
  5
311
  8
0
  6
CONTINUOUS
 62
     7
 10
2805.1645524435339
 20
1481.920031678141
 30
0.0
 11
2816.6845524435339
 21
1481.920031678141
 31
0.0
  0
LINE
  5
312
  8
0
  6
CONTINUOUS
 62
     7
 10
2816.6845524435339
 20
1483.2400316781409
 30
0.0
 11
2816.6845524435339
 21
1481.920031678141
 31
0.0
  0
ARC
  5
313
  8
0
  6
CONTINUOUS
 62
     7
 10
2817.1845524435339
 20
1483.2400316781409
 30
0.0
 40
0.5
 50
0.0
 51
180.0
  0
LINE
  5
314
  8
0
  6
CONTINUOUS
 62
     7
 10
2817.6845524435339
 20
1483.2400316781409
 30
0.0
 11
2817.6845524435339
 21
1481.920031678141
 31
0.0
  0
LINE
  5
315
  8
0
  6
CONTINUOUS
 62
     7
 10
2817.6845524435339
 20
1481.920031678141
 30
0.0
 11
2829.2045524435339
 21
1481.920031678141
 31
0.0
  0
LINE
  5
316
  8
0
  6
CONTINUOUS
 62
     7
 10
2829.2045524435339
 20
1483.2400316781409
 30
0.0
 11
2829.2045524435339
 21
1481.920031678141
 31
0.0
  0
ARC
  5
317
  8
0
  6
CONTINUOUS
 62
     7
 10
2829.7045524435339
 20
1483.2400316781409
 30
0.0
 40
0.5
 50
0.0
 51
180.0
  0
LINE
  5
318
  8
0
  6
CONTINUOUS
 62
     7
 10
2830.2045524435339
 20
1483.2400316781409
 30
0.0
 11
2830.2045524435339
 21
1481.920031678141
 31
0.0
  0
LINE
  5
319
  8
0
  6
CONTINUOUS
 62
     7
 10
2830.2045524435339
 20
1481.920031678141
 30
0.0
 11
2841.7245524435339
 21
1481.920031678141
 31
0.0
  0
LINE
  5
31A
  8
0
  6
CONTINUOUS
 62
     7
 10
2841.7245524435339
 20
1483.2400316781409
 30
0.0
 11
2841.7245524435339
 21
1481.920031678141
 31
0.0
  0
ARC
  5
31B
  8
0
  6
CONTINUOUS
 62
     7
 10
2842.2245524435339
 20
1483.2400316781409
 30
0.0
 40
0.5
 50
0.0
 51
180.0
  0
LINE
  5
31C
  8
0
  6
CONTINUOUS
 62
     7
 10
2842.7245524435339
 20
1483.2400316781409
 30
0.0
 11
2842.7245524435339
 21
1481.920031678141
 31
0.0
  0
LINE
  5
31D
  8
0
  6
CONTINUOUS
 62
     7
 10
2842.7245524435339
 20
1481.920031678141
 30
0.0
 11
2854.2445524435338
 21
1481.920031678141
 31
0.0
  0
LINE
  5
31E
  8
0
  6
CONTINUOUS
 62
     7
 10
2854.2445524435338
 20
1483.2400316781409
 30
0.0
 11
2854.2445524435338
 21
1481.920031678141
 31
0.0
  0
ARC
  5
31F
  8
0
  6
CONTINUOUS
 62
     7
 10
2854.7445524435338
 20
1483.2400316781409
 30
0.0
 40
0.5
 50
0.0
 51
180.0
  0
LINE
  5
320
  8
0
  6
CONTINUOUS
 62
     7
 10
2855.2445524435338
 20
1483.2400316781409
 30
0.0
 11
2855.2445524435338
 21
1481.920031678141
 31
0.0
  0
LINE
  5
321
  8
0
  6
CONTINUOUS
 62
     7
 10
2855.2445524435338
 20
1481.920031678141
 30
0.0
 11
2866.7645524435338
 21
1481.920031678141
 31
0.0
  0
LINE
  5
322
  8
0
  6
CONTINUOUS
 62
     7
 10
2866.7645524435338
 20
1483.2400316781409
 30
0.0
 11
2866.7645524435338
 21
1481.920031678141
 31
0.0
  0
ARC
  5
323
  8
0
  6
CONTINUOUS
 62
     7
 10
2867.2645524435338
 20
1483.2400316781409
 30
0.0
 40
0.5
 50
0.0
 51
180.0
  0
LINE
  5
324
  8
0
  6
CONTINUOUS
 62
     7
 10
2867.7645524435338
 20
1483.2400316781409
 30
0.0
 11
2867.7645524435338
 21
1481.920031678141
 31
0.0
  0
LINE
  5
325
  8
0
  6
CONTINUOUS
 62
     7
 10
2867.7645524435338
 20
1481.920031678141
 30
0.0
 11
2874.3445524435342
 21
1481.920031678141
 31
0.0
  0
LINE
  5
326
  8
0
  6
CONTINUOUS
 62
     7
 10
2874.3445524435342
 20
1481.920031678141
 30
0.0
 11
2879.2845524435338
 21
1483.080063627041
 31
0.0
  0
LINE
  5
327
  8
0
  6
CONTINUOUS
 62
     7
 10
2879.2845524435338
 20
1484.7100316781409
 30
0.0
 11
2879.2845524435338
 21
1483.080063627041
 31
0.0
  0
ARC
  5
328
  8
0
  6
CONTINUOUS
 62
     7
 10
2879.7845524435338
 20
1484.7100316781409
 30
0.0
 40
0.5
 50
0.0
 51
180.0
  0
LINE
  5
329
  8
0
  6
CONTINUOUS
 62
     7
 10
2880.2845524435338
 20
1484.7100316781409
 30
0.0
 11
2880.2845524435338
 21
1483.3148879081409
 31
0.0
  0
LINE
  5
32A
  8
0
  6
CONTINUOUS
 62
     7
 10
2880.2845524435338
 20
1483.3148879081409
 30
0.0
 11
2891.8045524435338
 21
1486.0200636270411
 31
0.0
  0
LINE
  5
32B
  8
0
  6
CONTINUOUS
 62
     7
 10
2891.8045524435338
 20
1487.650031678141
 30
0.0
 11
2891.8045524435338
 21
1486.0200636270411
 31
0.0
  0
ARC
  5
3AA
  8
0
  6
CONTINUOUS
 62
     7
 10
2895.986366367797
 20
1431.6058757851481
 30
0.0
 40
0.7351913151207157
 50
0.0
 51
180.0
  0
LINE
  5
3AB
  8
0
  6
CONTINUOUS
 62
     7
 10
2896.721557682898
 20
1431.6058757851481
 30
0.0
 11
2896.721557682898
 21
1430.265960646748
 31
0.0
  0
LINE
  5
3AC
  8
0
  6
CONTINUOUS
 62
     7
 10
2896.721557682898
 20
1430.265960646748
 30
0.0
 11
2903.6579060308968
 21
1431.8947836613479
 31
0.0
  0
LINE
  5
3AD
  8
0
  6
CONTINUOUS
 62
     7
 10
2903.6579060308968
 20
1431.8947836613479
 30
0.0
 11
2903.6579060308968
 21
1435.340875785148
 31
0.0
  0
LINE
  5
3AE
  8
0
  6
CONTINUOUS
 62
     7
 10
2901.3486642767971
 20
1435.340875785148
 30
0.0
 11
2903.6579060308968
 21
1435.340875785148
 31
0.0
  0
LINE
  5
3AF
  8
0
  6
CONTINUOUS
 62
     7
 10
2901.3486642767971
 20
1444.9908757851481
 30
0.0
 11
2901.3486642767971
 21
1435.340875785148
 31
0.0
  0
LINE
  5
3B0
  8
0
  6
CONTINUOUS
 62
     7
 10
2901.3486642767971
 20
1444.9908757851481
 30
0.0
 11
2824.6486642767968
 21
1444.9908757851481
 31
0.0
  0
LINE
  5
3B1
  8
0
  6
CONTINUOUS
 62
     7
 10
2824.6486642767968
 20
1447.6908757851479
 30
0.0
 11
2824.6486642767968
 21
1444.9908757851481
 31
0.0
  0
LINE
  5
3B2
  8
0
  6
CONTINUOUS
 62
     7
 10
2901.3486642767971
 20
1447.6908757851479
 30
0.0
 11
2824.6486642767968
 21
1447.6908757851479
 31
0.0
  0
LINE
  5
3B3
  8
0
  6
CONTINUOUS
 62
     7
 10
2901.3486642767971
 20
1457.340875785148
 30
0.0
 11
2901.3486642767971
 21
1447.6908757851479
 31
0.0
  0
LINE
  5
3B4
  8
0
  6
CONTINUOUS
 62
     7
 10
2901.3486642767971
 20
1457.340875785148
 30
0.0
 11
2903.6579060308968
 21
1457.340875785148
 31
0.0
  0
LINE
  5
3B5
  8
0
  6
CONTINUOUS
 62
     7
 10
2903.6579060308968
 20
1460.7869679090479
 30
0.0
 11
2903.6579060308968
 21
1457.340875785148
 31
0.0
  0
LINE
  5
3B6
  8
0
  6
CONTINUOUS
 62
     7
 10
2890.2263663677968
 20
1463.9410195551479
 30
0.0
 11
2903.6579060308968
 21
1460.7869679090479
 31
0.0
  0
LINE
  5
3B7
  8
0
  6
CONTINUOUS
 62
     7
 10
2890.2263663677968
 20
1462.5458757851479
 30
0.0
 11
2890.2263663677968
 21
1463.9410195551479
 31
0.0
  0
ARC
  5
3B8
  8
0
  6
CONTINUOUS
 62
     7
 10
2889.7263663677968
 20
1462.5458757851479
 30
0.0
 40
0.5
 50
180.0
 51
0.0
  0
LINE
  5
3B9
  8
0
  6
CONTINUOUS
 62
     7
 10
2889.2263663677968
 20
1462.5458757851479
 30
0.0
 11
2889.2263663677968
 21
1464.1758438362481
 31
0.0
  0
LINE
  5
3BA
  8
0
  6
CONTINUOUS
 62
     7
 10
2877.7063663677968
 20
1466.881019555148
 30
0.0
 11
2889.2263663677968
 21
1464.1758438362481
 31
0.0
  0
LINE
  5
3BB
  8
0
  6
CONTINUOUS
 62
     7
 10
2877.7063663677968
 20
1465.485875785148
 30
0.0
 11
2877.7063663677968
 21
1466.881019555148
 31
0.0
  0
ARC
  5
3BC
  8
0
  6
CONTINUOUS
 62
     7
 10
2877.2063663677968
 20
1465.485875785148
 30
0.0
 40
0.5
 50
180.0
 51
0.0
  0
LINE
  5
3BD
  8
0
  6
CONTINUOUS
 62
     7
 10
2876.7063663677968
 20
1465.485875785148
 30
0.0
 11
2876.7063663677968
 21
1467.1158438362479
 31
0.0
  0
LINE
  5
3BE
  8
0
  6
CONTINUOUS
 62
     7
 10
2874.8963663677969
 20
1467.540875785148
 30
0.0
 11
2876.7063663677968
 21
1467.1158438362479
 31
0.0
  0
LINE
  5
3BF
  8
0
  6
CONTINUOUS
 62
     7
 10
2865.1863663677968
 20
1467.540875785148
 30
0.0
 11
2874.8963663677969
 21
1467.540875785148
 31
0.0
  0
LINE
  5
3C0
  8
0
  6
CONTINUOUS
 62
     7
 10
2865.1863663677968
 20
1466.2208757851481
 30
0.0
 11
2865.1863663677968
 21
1467.540875785148
 31
0.0
  0
ARC
  5
3C1
  8
0
  6
CONTINUOUS
 62
     7
 10
2864.6863663677968
 20
1466.2208757851481
 30
0.0
 40
0.5
 50
180.0
 51
0.0
  0
LINE
  5
3C2
  8
0
  6
CONTINUOUS
 62
     7
 10
2864.1863663677968
 20
1466.2208757851481
 30
0.0
 11
2864.1863663677968
 21
1467.540875785148
 31
0.0
  0
LINE
  5
3C3
  8
0
  6
CONTINUOUS
 62
     7
 10
2852.6663663677969
 20
1467.540875785148
 30
0.0
 11
2864.1863663677968
 21
1467.540875785148
 31
0.0
  0
LINE
  5
3C4
  8
0
  6
CONTINUOUS
 62
     7
 10
2852.6663663677969
 20
1466.2208757851481
 30
0.0
 11
2852.6663663677969
 21
1467.540875785148
 31
0.0
  0
ARC
  5
3C5
  8
0
  6
CONTINUOUS
 62
     7
 10
2852.1663663677969
 20
1466.2208757851481
 30
0.0
 40
0.5
 50
180.0
 51
0.0
  0
LINE
  5
3C6
  8
0
  6
CONTINUOUS
 62
     7
 10
2851.6663663677969
 20
1466.2208757851481
 30
0.0
 11
2851.6663663677969
 21
1467.540875785148
 31
0.0
  0
LINE
  5
3C7
  8
0
  6
CONTINUOUS
 62
     7
 10
2840.1463663677969
 20
1467.540875785148
 30
0.0
 11
2851.6663663677969
 21
1467.540875785148
 31
0.0
  0
LINE
  5
3C8
  8
0
  6
CONTINUOUS
 62
     7
 10
2840.1463663677969
 20
1466.2208757851481
 30
0.0
 11
2840.1463663677969
 21
1467.540875785148
 31
0.0
  0
ARC
  5
3C9
  8
0
  6
CONTINUOUS
 62
     7
 10
2839.6463663677969
 20
1466.2208757851481
 30
0.0
 40
0.5
 50
180.0
 51
0.0
  0
LINE
  5
3CA
  8
0
  6
CONTINUOUS
 62
     7
 10
2839.1463663677969
 20
1466.2208757851481
 30
0.0
 11
2839.1463663677969
 21
1467.540875785148
 31
0.0
  0
LINE
  5
3CB
  8
0
  6
CONTINUOUS
 62
     7
 10
2827.6263663677969
 20
1467.540875785148
 30
0.0
 11
2839.1463663677969
 21
1467.540875785148
 31
0.0
  0
LINE
  5
3CC
  8
0
  6
CONTINUOUS
 62
     7
 10
2827.6263663677969
 20
1466.2208757851481
 30
0.0
 11
2827.6263663677969
 21
1467.540875785148
 31
0.0
  0
ARC
  5
3CD
  8
0
  6
CONTINUOUS
 62
     7
 10
2827.1263663677969
 20
1466.2208757851481
 30
0.0
 40
0.5
 50
180.0
 51
0.0
  0
LINE
  5
3CE
  8
0
  6
CONTINUOUS
 62
     7
 10
2826.6263663677969
 20
1466.2208757851481
 30
0.0
 11
2826.6263663677969
 21
1467.540875785148
 31
0.0
  0
LINE
  5
3CF
  8
0
  6
CONTINUOUS
 62
     7
 10
2815.1063663677969
 20
1467.540875785148
 30
0.0
 11
2826.6263663677969
 21
1467.540875785148
 31
0.0
  0
LINE
  5
3D0
  8
0
  6
CONTINUOUS
 62
     7
 10
2815.1063663677969
 20
1466.2208757851481
 30
0.0
 11
2815.1063663677969
 21
1467.540875785148
 31
0.0
  0
ARC
  5
3D1
  8
0
  6
CONTINUOUS
 62
     7
 10
2814.6063663677969
 20
1466.2208757851481
 30
0.0
 40
0.4999999999999997
 50
180.0
 51
0.0
  0
LINE
  5
3D2
  8
0
  6
CONTINUOUS
 62
     7
 10
2814.1063663677969
 20
1466.2208757851481
 30
0.0
 11
2814.1063663677969
 21
1467.540875785148
 31
0.0
  0
LINE
  5
3D3
  8
0
  6
CONTINUOUS
 62
     7
 10
2802.5863663677969
 20
1467.540875785148
 30
0.0
 11
2814.1063663677969
 21
1467.540875785148
 31
0.0
  0
LINE
  5
3D4
  8
0
  6
CONTINUOUS
 62
     7
 10
2802.5863663677969
 20
1466.2208757851481
 30
0.0
 11
2802.5863663677969
 21
1467.540875785148
 31
0.0
  0
ARC
  5
3D5
  8
0
  6
CONTINUOUS
 62
     7
 10
2802.0863663677969
 20
1466.2208757851481
 30
0.0
 40
0.5
 50
180.0
 51
0.0
  0
LINE
  5
3D6
  8
0
  6
CONTINUOUS
 62
     7
 10
2801.5863663677969
 20
1466.2208757851481
 30
0.0
 11
2801.5863663677969
 21
1467.540875785148
 31
0.0
  0
LINE
  5
3D7
  8
0
  6
CONTINUOUS
 62
     7
 10
2790.0663663677969
 20
1467.540875785148
 30
0.0
 11
2801.5863663677969
 21
1467.540875785148
 31
0.0
  0
LINE
  5
3D8
  8
0
  6
CONTINUOUS
 62
     7
 10
2790.0663663677969
 20
1466.2208757851481
 30
0.0
 11
2790.0663663677969
 21
1467.540875785148
 31
0.0
  0
ARC
  5
3D9
  8
0
  6
CONTINUOUS
 62
     7
 10
2789.5663663677969
 20
1466.2208757851481
 30
0.0
 40
0.5
 50
180.0
 51
0.0
  0
LINE
  5
3DA
  8
0
  6
CONTINUOUS
 62
     7
 10
2789.0663663677969
 20
1466.2208757851481
 30
0.0
 11
2789.0663663677969
 21
1467.540875785148
 31
0.0
  0
LINE
  5
3DB
  8
0
  6
CONTINUOUS
 62
     7
 10
2777.546366367797
 20
1467.540875785148
 30
0.0
 11
2789.0663663677969
 21
1467.540875785148
 31
0.0
  0
LINE
  5
3DC
  8
0
  6
CONTINUOUS
 62
     7
 10
2777.546366367797
 20
1466.2208757851481
 30
0.0
 11
2777.546366367797
 21
1467.540875785148
 31
0.0
  0
ARC
  5
3DD
  8
0
  6
CONTINUOUS
 62
     7
 10
2777.046366367797
 20
1466.2208757851481
 30
0.0
 40
0.5
 50
180.0
 51
0.0
  0
LINE
  5
3DE
  8
0
  6
CONTINUOUS
 62
     7
 10
2776.546366367797
 20
1466.2208757851481
 30
0.0
 11
2776.546366367797
 21
1467.540875785148
 31
0.0
  0
LINE
  5
3DF
  8
0
  6
CONTINUOUS
 62
     7
 10
2765.026366367797
 20
1467.540875785148
 30
0.0
 11
2776.546366367797
 21
1467.540875785148
 31
0.0
  0
LINE
  5
3E0
  8
0
  6
CONTINUOUS
 62
     7
 10
2765.026366367797
 20
1466.2208757851481
 30
0.0
 11
2765.026366367797
 21
1467.540875785148
 31
0.0
  0
ARC
  5
3E1
  8
0
  6
CONTINUOUS
 62
     7
 10
2764.526366367797
 20
1466.2208757851481
 30
0.0
 40
0.5
 50
180.0
 51
0.0
  0
LINE
  5
3E2
  8
0
  6
CONTINUOUS
 62
     7
 10
2764.026366367797
 20
1466.2208757851481
 30
0.0
 11
2764.026366367797
 21
1467.540875785148
 31
0.0
  0
LINE
  5
3E3
  8
0
  6
CONTINUOUS
 62
     7
 10
2752.506366367797
 20
1467.540875785148
 30
0.0
 11
2764.026366367797
 21
1467.540875785148
 31
0.0
  0
LINE
  5
3E4
  8
0
  6
CONTINUOUS
 62
     7
 10
2752.506366367797
 20
1466.2208757851481
 30
0.0
 11
2752.506366367797
 21
1467.540875785148
 31
0.0
  0
ARC
  5
3E5
  8
0
  6
CONTINUOUS
 62
     7
 10
2752.006366367797
 20
1466.2208757851481
 30
0.0
 40
0.5
 50
180.0
 51
0.0
  0
LINE
  5
3E6
  8
0
  6
CONTINUOUS
 62
     7
 10
2751.506366367797
 20
1466.2208757851481
 30
0.0
 11
2751.506366367797
 21
1467.540875785148
 31
0.0
  0
LINE
  5
3E7
  8
0
  6
CONTINUOUS
 62
     7
 10
2739.986366367797
 20
1467.540875785148
 30
0.0
 11
2751.506366367797
 21
1467.540875785148
 31
0.0
  0
LINE
  5
3E8
  8
0
  6
CONTINUOUS
 62
     7
 10
2739.986366367797
 20
1466.2208757851481
 30
0.0
 11
2739.986366367797
 21
1467.540875785148
 31
0.0
  0
ARC
  5
3E9
  8
0
  6
CONTINUOUS
 62
     7
 10
2739.486366367797
 20
1466.2208757851481
 30
0.0
 40
0.5
 50
180.0
 51
0.0
  0
LINE
  5
3EA
  8
0
  6
CONTINUOUS
 62
     7
 10
2738.986366367797
 20
1466.2208757851481
 30
0.0
 11
2738.986366367797
 21
1467.540875785148
 31
0.0
  0
LINE
  5
3EB
  8
0
  6
CONTINUOUS
 62
     7
 10
2731.3563663677969
 20
1467.540875785148
 30
0.0
 11
2738.986366367797
 21
1467.540875785148
 31
0.0
  0
LINE
  5
3EC
  8
0
  6
CONTINUOUS
 62
     7
 10
2731.3563663677969
 20
1467.540875785148
 30
0.0
 11
2731.3563663677969
 21
1457.340875785148
 31
0.0
  0
LINE
  5
3ED
  8
0
  6
CONTINUOUS
 62
     7
 10
2734.1563663677971
 20
1457.340875785148
 30
0.0
 11
2731.3563663677969
 21
1457.340875785148
 31
0.0
  0
LINE
  5
3EE
  8
0
  6
CONTINUOUS
 62
     7
 10
2734.1563663677971
 20
1435.340875785148
 30
0.0
 11
2734.1563663677971
 21
1457.340875785148
 31
0.0
  0
LINE
  5
3EF
  8
0
  6
CONTINUOUS
 62
     7
 10
2734.1563663677971
 20
1435.340875785148
 30
0.0
 11
2731.3563663677969
 21
1435.340875785148
 31
0.0
  0
LINE
  5
3F0
  8
0
  6
CONTINUOUS
 62
     7
 10
2731.3563663677969
 20
1435.340875785148
 30
0.0
 11
2731.3563663677969
 21
1425.140875785148
 31
0.0
  0
LINE
  5
3F1
  8
0
  6
CONTINUOUS
 62
     7
 10
2731.3563663677969
 20
1425.140875785148
 30
0.0
 11
2745.0111750526971
 21
1425.140875785148
 31
0.0
  0
LINE
  5
3F2
  8
0
  6
CONTINUOUS
 62
     7
 10
2745.0111750526971
 20
1426.4608757851479
 30
0.0
 11
2745.0111750526971
 21
1425.140875785148
 31
0.0
  0
ARC
  5
3F3
  8
0
  6
CONTINUOUS
 62
     7
 10
2745.7463663677968
 20
1426.4608757851479
 30
0.0
 40
0.7351913151207015
 50
0.0
 51
180.0
  0
LINE
  5
3F4
  8
0
  6
CONTINUOUS
 62
     7
 10
2746.4815576828969
 20
1426.4608757851479
 30
0.0
 11
2746.4815576828969
 21
1425.140875785148
 31
0.0
  0
LINE
  5
3F5
  8
0
  6
CONTINUOUS
 62
     7
 10
2746.4815576828969
 20
1425.140875785148
 30
0.0
 11
2757.5311750526971
 21
1425.140875785148
 31
0.0
  0
LINE
  5
3F6
  8
0
  6
CONTINUOUS
 62
     7
 10
2757.5311750526971
 20
1426.4608757851479
 30
0.0
 11
2757.5311750526971
 21
1425.140875785148
 31
0.0
  0
ARC
  5
3F7
  8
0
  6
CONTINUOUS
 62
     7
 10
2758.2663663677972
 20
1426.4608757851479
 30
0.0
 40
0.7351913151207015
 50
0.0
 51
180.0
  0
LINE
  5
3F8
  8
0
  6
CONTINUOUS
 62
     7
 10
2759.0015576828969
 20
1426.4608757851479
 30
0.0
 11
2759.0015576828969
 21
1425.140875785148
 31
0.0
  0
LINE
  5
3F9
  8
0
  6
CONTINUOUS
 62
     7
 10
2759.0015576828969
 20
1425.140875785148
 30
0.0
 11
2770.0511750526971
 21
1425.140875785148
 31
0.0
  0
LINE
  5
3FA
  8
0
  6
CONTINUOUS
 62
     7
 10
2770.0511750526971
 20
1426.4608757851479
 30
0.0
 11
2770.0511750526971
 21
1425.140875785148
 31
0.0
  0
ARC
  5
3FB
  8
0
  6
CONTINUOUS
 62
     7
 10
2770.7863663677972
 20
1426.4608757851479
 30
0.0
 40
0.7351913151207015
 50
0.0
 51
180.0
  0
LINE
  5
3FC
  8
0
  6
CONTINUOUS
 62
     7
 10
2771.5215576828969
 20
1426.4608757851479
 30
0.0
 11
2771.5215576828969
 21
1425.140875785148
 31
0.0
  0
LINE
  5
3FD
  8
0
  6
CONTINUOUS
 62
     7
 10
2771.5215576828969
 20
1425.140875785148
 30
0.0
 11
2782.5711750526971
 21
1425.140875785148
 31
0.0
  0
LINE
  5
3FE
  8
0
  6
CONTINUOUS
 62
     7
 10
2782.5711750526971
 20
1426.4608757851479
 30
0.0
 11
2782.5711750526971
 21
1425.140875785148
 31
0.0
  0
ARC
  5
3FF
  8
0
  6
CONTINUOUS
 62
     7
 10
2783.3063663677972
 20
1426.4608757851479
 30
0.0
 40
0.7351913151206944
 50
0.0
 51
180.0
  0
LINE
  5
400
  8
0
  6
CONTINUOUS
 62
     7
 10
2784.0415576828968
 20
1426.4608757851479
 30
0.0
 11
2784.0415576828968
 21
1425.140875785148
 31
0.0
  0
LINE
  5
401
  8
0
  6
CONTINUOUS
 62
     7
 10
2784.0415576828968
 20
1425.140875785148
 30
0.0
 11
2795.0911750526971
 21
1425.140875785148
 31
0.0
  0
LINE
  5
402
  8
0
  6
CONTINUOUS
 62
     7
 10
2795.0911750526971
 20
1426.4608757851479
 30
0.0
 11
2795.0911750526971
 21
1425.140875785148
 31
0.0
  0
ARC
  5
403
  8
0
  6
CONTINUOUS
 62
     7
 10
2795.8263663677972
 20
1426.4608757851479
 30
0.0
 40
0.7351913151206979
 50
0.0
 51
180.0
  0
LINE
  5
404
  8
0
  6
CONTINUOUS
 62
     7
 10
2796.5615576828968
 20
1426.4608757851479
 30
0.0
 11
2796.5615576828968
 21
1425.140875785148
 31
0.0
  0
LINE
  5
405
  8
0
  6
CONTINUOUS
 62
     7
 10
2796.5615576828968
 20
1425.140875785148
 30
0.0
 11
2807.611175052697
 21
1425.140875785148
 31
0.0
  0
LINE
  5
406
  8
0
  6
CONTINUOUS
 62
     7
 10
2807.611175052697
 20
1426.4608757851479
 30
0.0
 11
2807.611175052697
 21
1425.140875785148
 31
0.0
  0
ARC
  5
407
  8
0
  6
CONTINUOUS
 62
     7
 10
2808.3463663677971
 20
1426.4608757851479
 30
0.0
 40
0.7351913151206979
 50
0.0
 51
180.0
  0
LINE
  5
408
  8
0
  6
CONTINUOUS
 62
     7
 10
2809.0815576828968
 20
1426.4608757851479
 30
0.0
 11
2809.0815576828968
 21
1425.140875785148
 31
0.0
  0
LINE
  5
409
  8
0
  6
CONTINUOUS
 62
     7
 10
2809.0815576828968
 20
1425.140875785148
 30
0.0
 11
2820.131175052697
 21
1425.140875785148
 31
0.0
  0
LINE
  5
40A
  8
0
  6
CONTINUOUS
 62
     7
 10
2820.131175052697
 20
1426.4608757851479
 30
0.0
 11
2820.131175052697
 21
1425.140875785148
 31
0.0
  0
ARC
  5
40B
  8
0
  6
CONTINUOUS
 62
     7
 10
2820.8663663677971
 20
1426.4608757851479
 30
0.0
 40
0.7351913151206971
 50
0.0
 51
180.0
  0
LINE
  5
40C
  8
0
  6
CONTINUOUS
 62
     7
 10
2821.6015576828968
 20
1426.4608757851479
 30
0.0
 11
2821.6015576828968
 21
1425.140875785148
 31
0.0
  0
LINE
  5
40D
  8
0
  6
CONTINUOUS
 62
     7
 10
2821.6015576828968
 20
1425.140875785148
 30
0.0
 11
2832.651175052697
 21
1425.140875785148
 31
0.0
  0
LINE
  5
40E
  8
0
  6
CONTINUOUS
 62
     7
 10
2832.651175052697
 20
1426.4608757851479
 30
0.0
 11
2832.651175052697
 21
1425.140875785148
 31
0.0
  0
ARC
  5
40F
  8
0
  6
CONTINUOUS
 62
     7
 10
2833.3863663677971
 20
1426.4608757851479
 30
0.0
 40
0.7351913151206962
 50
0.0
 51
180.0
  0
LINE
  5
410
  8
0
  6
CONTINUOUS
 62
     7
 10
2834.1215576828972
 20
1426.4608757851479
 30
0.0
 11
2834.1215576828972
 21
1425.140875785148
 31
0.0
  0
LINE
  5
411
  8
0
  6
CONTINUOUS
 62
     7
 10
2834.1215576828972
 20
1425.140875785148
 30
0.0
 11
2845.171175052697
 21
1425.140875785148
 31
0.0
  0
LINE
  5
412
  8
0
  6
CONTINUOUS
 62
     7
 10
2845.171175052697
 20
1426.4608757851479
 30
0.0
 11
2845.171175052697
 21
1425.140875785148
 31
0.0
  0
ARC
  5
413
  8
0
  6
CONTINUOUS
 62
     7
 10
2845.9063663677971
 20
1426.4608757851479
 30
0.0
 40
0.7351913151206979
 50
0.0
 51
180.0
  0
LINE
  5
414
  8
0
  6
CONTINUOUS
 62
     7
 10
2846.6415576828972
 20
1426.4608757851479
 30
0.0
 11
2846.6415576828972
 21
1425.140875785148
 31
0.0
  0
LINE
  5
415
  8
0
  6
CONTINUOUS
 62
     7
 10
2846.6415576828972
 20
1425.140875785148
 30
0.0
 11
2857.691175052697
 21
1425.140875785148
 31
0.0
  0
LINE
  5
416
  8
0
  6
CONTINUOUS
 62
     7
 10
2857.691175052697
 20
1426.4608757851479
 30
0.0
 11
2857.691175052697
 21
1425.140875785148
 31
0.0
  0
ARC
  5
417
  8
0
  6
CONTINUOUS
 62
     7
 10
2858.426366367798
 20
1426.4608757851479
 30
0.0
 40
0.7351913151206944
 50
0.0
 51
180.0
  0
LINE
  5
418
  8
0
  6
CONTINUOUS
 62
     7
 10
2859.1615576828972
 20
1426.4608757851479
 30
0.0
 11
2859.1615576828972
 21
1425.140875785148
 31
0.0
  0
LINE
  5
419
  8
0
  6
CONTINUOUS
 62
     7
 10
2859.1615576828972
 20
1425.140875785148
 30
0.0
 11
2870.2111750526969
 21
1425.140875785148
 31
0.0
  0
LINE
  5
41A
  8
0
  6
CONTINUOUS
 62
     7
 10
2870.2111750526969
 20
1426.4608757851479
 30
0.0
 11
2870.2111750526969
 21
1425.140875785148
 31
0.0
  0
ARC
  5
41B
  8
0
  6
CONTINUOUS
 62
     7
 10
2870.9463663677971
 20
1426.4608757851479
 30
0.0
 40
0.7351913151206944
 50
0.0
 51
180.0
  0
LINE
  5
41C
  8
0
  6
CONTINUOUS
 62
     7
 10
2871.6815576828972
 20
1426.4608757851479
 30
0.0
 11
2871.6815576828972
 21
1425.140875785148
 31
0.0
  0
LINE
  5
41D
  8
0
  6
CONTINUOUS
 62
     7
 10
2871.6815576828972
 20
1425.140875785148
 30
0.0
 11
2874.8963663677969
 21
1425.140875785148
 31
0.0
  0
LINE
  5
41E
  8
0
  6
CONTINUOUS
 62
     7
 10
2874.8963663677969
 20
1425.140875785148
 30
0.0
 11
2882.7311750526969
 21
1426.980679102548
 31
0.0
  0
LINE
  5
41F
  8
0
  6
CONTINUOUS
 62
     7
 10
2882.7311750526969
 20
1428.665875785148
 30
0.0
 11
2882.7311750526969
 21
1426.980679102548
 31
0.0
  0
ARC
  5
420
  8
0
  6
CONTINUOUS
 62
     7
 10
2883.466366367797
 20
1428.665875785148
 30
0.0
 40
0.7351913151207015
 50
0.0
 51
180.0
  0
LINE
  5
421
  8
0
  6
CONTINUOUS
 62
     7
 10
2884.2015576828971
 20
1428.665875785148
 30
0.0
 11
2884.2015576828971
 21
1427.3259606467479
 31
0.0
  0
LINE
  5
422
  8
0
  6
CONTINUOUS
 62
     7
 10
2884.2015576828971
 20
1427.3259606467479
 30
0.0
 11
2895.2511750526969
 21
1429.9206791025481
 31
0.0
  0
LINE
  5
423
  8
0
  6
CONTINUOUS
 62
     7
 10
2895.2511750526969
 20
1431.6058757851481
 30
0.0
 11
2895.2511750526969
 21
1429.9206791025481
 31
0.0
  0
CIRCLE
  5
429
  8
0
  6
CONTINUOUS
 62
     7
 10
3312.4636399255219
 20
1516.2925620509329
 30
0.0
 40
11.0
  0
CIRCLE
  5
475
  8
0
  6
CONTINUOUS
 62
     7
 10
2742.4511903114731
 20
1404.580306238116
 30
0.0
 40
1.4500000000000031
  0
CIRCLE
  5
476
  8
0
  6
CONTINUOUS
 62
     7
 10
2800.443294550073
 20
1413.278736136315
 30
0.0
 40
1.4499999999999951
  0
CIRCLE
  5
477
  8
0
  6
CONTINUOUS
 62
     7
 10
2887.0362208092729
 20
1417.643146717415
 30
0.0
 40
1.4499999999999451
  0
CIRCLE
  5
478
  8
0
  6
CONTINUOUS
 62
     7
 10
2945.0362208092729
 20
1417.643146717415
 30
0.0
 40
1.4499999999999951
  0
CIRCLE
  5
479
  8
0
  6
CONTINUOUS
 62
     7
 10
3003.0362208092729
 20
1417.643146717415
 30
0.0
 40
1.449999999999966
  0
CIRCLE
  5
47A
  8
0
  6
CONTINUOUS
 62
     7
 10
3061.0362208092729
 20
1417.643146717415
 30
0.0
 40
1.4499999999999951
  0
CIRCLE
  5
47B
  8
0
  6
CONTINUOUS
 62
     7
 10
3119.0362208092729
 20
1417.643146717415
 30
0.0
 40
1.4499999999999811
  0
CIRCLE
  5
47C
  8
0
  6
CONTINUOUS
 62
     7
 10
3177.0362208092738
 20
1417.643146717415
 30
0.0
 40
1.4499999999999811
  0
CIRCLE
  5
47D
  8
0
  6
CONTINUOUS
 62
     7
 10
2814.7098360090731
 20
1337.8676709743161
 30
0.0
 40
1.3327700722453799
  0
CIRCLE
  5
47E
  8
0
  6
CONTINUOUS
 62
     7
 10
2785.723191024374
 20
1342.215474915816
 30
0.0
 40
1.4499999999999309
  0
CIRCLE
  5
47F
  8
0
  6
CONTINUOUS
 62
     7
 10
2872.683125978273
 20
1335.6431467174159
 30
0.0
 40
1.3425200607826879
  0
CIRCLE
  5
480
  8
0
  6
CONTINUOUS
 62
     7
 10
2930.6564159475729
 20
1335.6431467174159
 30
0.0
 40
1.36203100272283
  0
CIRCLE
  5
481
  8
0
  6
CONTINUOUS
 62
     7
 10
2988.6297059168728
 20
1335.6431467174159
 30
0.0
 40
1.3815561733320649
  0
CIRCLE
  5
482
  8
0
  6
CONTINUOUS
 62
     7
 10
3046.6029958861741
 20
1335.6431467174159
 30
0.0
 40
1.4010951221949159
  0
CIRCLE
  5
483
  8
0
  6
CONTINUOUS
 62
     7
 10
3104.576285855373
 20
1335.6431467174159
 30
0.0
 40
1.4206474193906751
  0
CIRCLE
  5
484
  8
0
  6
CONTINUOUS
 62
     7
 10
3162.549575824673
 20
1335.6431467174159
 30
0.0
 40
1.440212654269188
  0
LINE
  5
485
  8
0
  6
CONTINUOUS
 62
     7
 10
3225.5362208092729
 20
1424.6430673002151
 30
0.0
 11
3225.5362208092729
 21
1378.0931467174159
 31
0.0
  0
LINE
  5
486
  8
0
  6
CONTINUOUS
 62
     7
 10
3225.5362208092729
 20
1378.0931467174159
 30
0.0
 11
3075.5362208092729
 21
1378.0931467174159
 31
0.0
  0
LINE
  5
487
  8
0
  6
CONTINUOUS
 62
     7
 10
3075.5362208092729
 20
1378.0931467174159
 30
0.0
 11
3075.5362208092729
 21
1402.6431467174159
 31
0.0
  0
LINE
  5
488
  8
0
  6
CONTINUOUS
 62
     7
 10
3075.5362208092729
 20
1402.6431467174159
 30
0.0
 11
3072.5362208092729
 21
1402.6431467174159
 31
0.0
  0
LINE
  5
489
  8
0
  6
CONTINUOUS
 62
     7
 10
3072.5362208092729
 20
1402.6431467174159
 30
0.0
 11
3072.5362208092729
 21
1378.0931467174159
 31
0.0
  0
LINE
  5
48A
  8
0
  6
CONTINUOUS
 62
     7
 10
3072.5362208092729
 20
1378.0931467174159
 30
0.0
 11
2965.5362208092729
 21
1378.0931467174159
 31
0.0
  0
LINE
  5
48B
  8
0
  6
CONTINUOUS
 62
     7
 10
2965.5362208092729
 20
1378.0931467174159
 30
0.0
 11
2965.5362208092729
 21
1375.1931467174161
 31
0.0
  0
LINE
  5
48C
  8
0
  6
CONTINUOUS
 62
     7
 10
2965.5362208092729
 20
1375.1931467174161
 30
0.0
 11
3072.5362208092729
 21
1375.1931467174161
 31
0.0
  0
LINE
  5
48D
  8
0
  6
CONTINUOUS
 62
     7
 10
3072.5362208092729
 20
1375.1931467174161
 30
0.0
 11
3072.5362208092729
 21
1350.6431467174159
 31
0.0
  0
LINE
  5
48E
  8
0
  6
CONTINUOUS
 62
     7
 10
3072.5362208092729
 20
1350.6431467174159
 30
0.0
 11
3075.5362208092729
 21
1350.6431467174159
 31
0.0
  0
LINE
  5
48F
  8
0
  6
CONTINUOUS
 62
     7
 10
3075.5362208092729
 20
1350.6431467174159
 30
0.0
 11
3075.5362208092729
 21
1375.1931467174161
 31
0.0
  0
LINE
  5
490
  8
0
  6
CONTINUOUS
 62
     7
 10
3075.5362208092729
 20
1375.1931467174161
 30
0.0
 11
3225.5362208092729
 21
1375.1931467174161
 31
0.0
  0
LINE
  5
491
  8
0
  6
CONTINUOUS
 62
     7
 10
3225.5362208092729
 20
1375.1931467174161
 30
0.0
 11
3225.5362208092729
 21
1338.6431467174159
 31
0.0
  0
LINE
  5
492
  8
0
  6
CONTINUOUS
 62
     7
 10
3225.5362208092729
 20
1338.6431467174159
 30
0.0
 11
3215.5362208092729
 21
1338.6431467174159
 31
0.0
  0
ARC
  5
493
  8
0
  6
CONTINUOUS
 62
     7
 10
3215.5362208092729
 20
1335.6431467174159
 30
0.0
 40
3.0000000000000062
 50
90.0
 51
270.0
  0
LINE
  5
494
  8
0
  6
CONTINUOUS
 62
     7
 10
3215.5362208092729
 20
1332.6431467174159
 30
0.0
 11
3225.5362208092729
 21
1332.6431467174159
 31
0.0
  0
LINE
  5
495
  8
0
  6
CONTINUOUS
 62
     7
 10
3225.5362208092729
 20
1332.6431467174159
 30
0.0
 11
3225.5362208092729
 21
1328.643226134616
 31
0.0
  0
LINE
  5
496
  8
0
  6
CONTINUOUS
 62
     7
 10
3225.5362208092729
 20
1328.643226134616
 30
0.0
 11
3206.5337069562729
 21
1328.643226134616
 31
0.0
  0
ARC
  5
497
  8
0
  6
CONTINUOUS
 62
     7
 10
3206.5337069562729
 20
1348.643226134616
 30
0.0
 40
20.000000000000011
 50
264.28955703647279
 51
270.0
  0
LINE
  5
498
  8
0
  6
CONTINUOUS
 62
     7
 10
3204.543684736273
 20
1328.742477114416
 30
0.0
 11
3176.5287568823728
 21
1331.5438957376159
 31
0.0
  0
ARC
  5
499
  8
0
  6
CONTINUOUS
 62
     7
 10
3174.5387346623729
 20
1311.6431467174159
 30
0.0
 40
20.0
 50
84.289557036472814
 51
90.0
  0
LINE
  5
49A
  8
0
  6
CONTINUOUS
 62
     7
 10
3174.5387346623729
 20
1331.643146717415
 30
0.0
 11
2831.1153981529742
 21
1331.643146717415
 31
0.0
  0
ARC
  5
49B
  8
0
  6
CONTINUOUS
 62
     7
 10
2831.1153981529742
 20
1351.6431467174159
 30
0.0
 40
20.0
 50
260.97071358576829
 51
270.0
  0
LINE
  5
49C
  8
0
  6
CONTINUOUS
 62
     7
 10
2827.9766122349729
 20
1331.890981697816
 30
0.0
 11
2731.2223422174729
 21
1347.266052731316
 31
0.0
  0
ARC
  5
49D
  8
0
  6
CONTINUOUS
 62
     7
 10
2731.5362208092729
 20
1349.2412692332159
 30
0.0
 40
2.0
 50
180.0
 51
260.97071358576829
  0
LINE
  5
49E
  8
0
  6
CONTINUOUS
 62
     7
 10
2729.5362208092729
 20
1349.2412692332159
 30
0.0
 11
2729.5362208092729
 21
1350.6431467174159
 31
0.0
  0
LINE
  5
49F
  8
0
  6
CONTINUOUS
 62
     7
 10
2729.5362208092729
 20
1350.6431467174159
 30
0.0
 11
2732.2362208092732
 21
1350.6431467174159
 31
0.0
  0
LINE
  5
4A0
  8
0
  6
CONTINUOUS
 62
     7
 10
2732.2362208092732
 20
1350.6431467174159
 30
0.0
 11
2732.2362208092732
 21
1402.6431467174159
 31
0.0
  0
LINE
  5
4A1
  8
0
  6
CONTINUOUS
 62
     7
 10
2732.2362208092732
 20
1402.6431467174159
 30
0.0
 11
2729.5362208092729
 21
1402.6431467174159
 31
0.0
  0
LINE
  5
4A2
  8
0
  6
CONTINUOUS
 62
     7
 10
2729.5362208092729
 20
1402.6431467174159
 30
0.0
 11
2729.5362208092729
 21
1404.0450242016159
 31
0.0
  0
ARC
  5
4A3
  8
0
  6
CONTINUOUS
 62
     7
 10
2731.5362208092729
 20
1404.0450242016159
 30
0.0
 40
2.0
 50
99.029286414231677
 51
180.0
  0
LINE
  5
4A4
  8
0
  6
CONTINUOUS
 62
     7
 10
2731.2223422174729
 20
1406.020240703516
 30
0.0
 11
2827.9766122349729
 21
1421.3953117370161
 31
0.0
  0
ARC
  5
4A5
  8
0
  6
CONTINUOUS
 62
     7
 10
2831.1153981529742
 20
1401.6431467174159
 30
0.0
 40
20.0
 50
90.0
 51
99.029286414231677
  0
LINE
  5
4A6
  8
0
  6
CONTINUOUS
 62
     7
 10
2831.1153981529742
 20
1421.643146717415
 30
0.0
 11
3174.5387346623729
 21
1421.643146717415
 31
0.0
  0
ARC
  5
4A7
  8
0
  6
CONTINUOUS
 62
     7
 10
3174.5387346623729
 20
1441.6431467174159
 30
0.0
 40
20.0
 50
270.0
 51
275.71044296352721
  0
LINE
  5
4A8
  8
0
  6
CONTINUOUS
 62
     7
 10
3176.5287568823728
 20
1421.7423976972159
 30
0.0
 11
3204.543684736273
 21
1424.543816320416
 31
0.0
  0
ARC
  5
4A9
  8
0
  6
CONTINUOUS
 62
     7
 10
3206.5337069562729
 20
1404.643067300216
 30
0.0
 40
20.0
 50
90.0
 51
95.710442963527143
  0
LINE
  5
4AA
  8
0
  6
CONTINUOUS
 62
     7
 10
3206.5337069562729
 20
1424.6430673002151
 30
0.0
 11
3225.5362208092729
 21
1424.6430673002151
 31
0.0
  0
CIRCLE
  5
4AB
  8
0
  6
CONTINUOUS
 62
     7
 10
3191.5362208092729
 20
1335.6431467174159
 30
0.0
 40
1.4499999999999891
  0
CIRCLE
  5
4AC
  8
0
  6
CONTINUOUS
 62
     7
 10
3133.562930840073
 20
1335.6431467174159
 30
0.0
 40
1.430428444564035
  0
CIRCLE
  5
4AD
  8
0
  6
CONTINUOUS
 62
     7
 10
3075.5896408707731
 20
1335.6431467174159
 30
0.0
 40
1.4108696283548381
  0
CIRCLE
  5
4AE
  8
0
  6
CONTINUOUS
 62
     7
 10
3017.6163509014732
 20
1335.6431467174159
 30
0.0
 40
1.3913239528174091
  0
CIRCLE
  5
4AF
  8
0
  6
CONTINUOUS
 62
     7
 10
2959.6430609321728
 20
1335.6431467174159
 30
0.0
 40
1.371791838090195
  0
CIRCLE
  5
4B0
  8
0
  6
CONTINUOUS
 62
     7
 10
2901.669770962973
 20
1335.6431467174159
 30
0.0
 40
1.352273724182075
  0
CIRCLE
  5
4B1
  8
0
  6
CONTINUOUS
 62
     7
 10
2843.696480993673
 20
1335.6431467174159
 30
0.0
 40
1.3327700722453799
  0
CIRCLE
  5
4B2
  8
0
  6
CONTINUOUS
 62
     7
 10
2756.9492163710729
 20
1346.5313797221161
 30
0.0
 40
1.4499999999999409
  0
CIRCLE
  5
4B3
  8
0
  6
CONTINUOUS
 62
     7
 10
2829.0362208092729
 20
1417.5674848878159
 30
0.0
 40
1.4499999999999951
  0
CIRCLE
  5
4B4
  8
0
  6
CONTINUOUS
 62
     7
 10
3148.0362208092729
 20
1417.643146717415
 30
0.0
 40
1.4499999999999951
  0
CIRCLE
  5
4B5
  8
0
  6
CONTINUOUS
 62
     7
 10
3090.0362208092729
 20
1417.643146717415
 30
0.0
 40
1.449999999999966
  0
CIRCLE
  5
4B6
  8
0
  6
CONTINUOUS
 62
     7
 10
3032.0362208092729
 20
1417.643146717415
 30
0.0
 40
1.449999999999966
  0
CIRCLE
  5
4B7
  8
0
  6
CONTINUOUS
 62
     7
 10
2974.0362208092729
 20
1417.643146717415
 30
0.0
 40
1.4499999999999951
  0
CIRCLE
  5
4B8
  8
0
  6
CONTINUOUS
 62
     7
 10
2916.0362208092729
 20
1417.643146717415
 30
0.0
 40
1.4499999999999451
  0
CIRCLE
  5
4B9
  8
0
  6
CONTINUOUS
 62
     7
 10
2858.0362208092729
 20
1417.643146717415
 30
0.0
 40
1.4499999999999951
  0
CIRCLE
  5
4BA
  8
0
  6
CONTINUOUS
 62
     7
 10
2771.4472424307728
 20
1408.9295211872161
 30
0.0
 40
1.4499999999999991
  0
CIRCLE
  5
4BB
  8
0
  6
CONTINUOUS
 62
     7
 10
3206.0362208092738
 20
1417.643146717415
 30
0.0
 40
1.4499999999999891
  0
CIRCLE
  5
503
  8
0
  6
CONTINUOUS
 62
     7
 10
3208.004595925077
 20
1254.207183108218
 30
0.0
 40
1.4499999999999309
  0
CIRCLE
  5
504
  8
0
  6
CONTINUOUS
 62
     7
 10
3222.504595925077
 20
1309.9570168193179
 30
0.0
 40
1.4499999999999309
  0
CIRCLE
  5
505
  8
0
  6
CONTINUOUS
 62
     7
 10
3193.504595925077
 20
1314.306823924318
 30
0.0
 40
1.4499999999999309
  0
CIRCLE
  5
506
  8
0
  6
CONTINUOUS
 62
     7
 10
3179.0045959250779
 20
1249.857376003218
 30
0.0
 40
1.450000000000045
  0
CIRCLE
  5
507
  8
0
  6
CONTINUOUS
 62
     7
 10
3150.004595925077
 20
1245.5075688983179
 30
0.0
 40
1.4499999999999309
  0
CIRCLE
  5
508
  8
0
  6
CONTINUOUS
 62
     7
 10
3164.5045959250779
 20
1318.656631029218
 30
0.0
 40
1.4499999999999309
  0
CIRCLE
  5
509
  8
0
  6
CONTINUOUS
 62
     7
 10
3135.504595925077
 20
1323.0064381342179
 30
0.0
 40
1.4499999999999309
  0
CIRCLE
  5
50A
  8
0
  6
CONTINUOUS
 62
     7
 10
3048.5045959250779
 20
1324.1695517400181
 30
0.0
 40
1.450000000000045
  0
CIRCLE
  5
50B
  8
0
  6
CONTINUOUS
 62
     7
 10
3077.504595925077
 20
1324.1695517400181
 30
0.0
 40
1.4499999999999309
  0
CIRCLE
  5
50C
  8
0
  6
CONTINUOUS
 62
     7
 10
3106.504595925077
 20
1324.1695517400181
 30
0.0
 40
1.450000000000045
  0
CIRCLE
  5
50D
  8
0
  6
CONTINUOUS
 62
     7
 10
3121.004595925077
 20
1242.1695517400181
 30
0.0
 40
1.450000000000045
  0
CIRCLE
  5
50E
  8
0
  6
CONTINUOUS
 62
     7
 10
3092.004595925077
 20
1242.1695517400181
 30
0.0
 40
1.4499999999999309
  0
CIRCLE
  5
50F
  8
0
  6
CONTINUOUS
 62
     7
 10
3063.0045959250779
 20
1242.1695517400181
 30
0.0
 40
1.4500000000001589
  0
CIRCLE
  5
510
  8
0
  6
CONTINUOUS
 62
     7
 10
3034.0045959250779
 20
1242.1695517400181
 30
0.0
 40
1.450000000000045
  0
CIRCLE
  5
511
  8
0
  6
CONTINUOUS
 62
     7
 10
3019.5045959250779
 20
1324.1695517400181
 30
0.0
 40
1.450000000000045
  0
CIRCLE
  5
512
  8
0
  6
CONTINUOUS
 62
     7
 10
3005.0045959250779
 20
1242.1695517400181
 30
0.0
 40
1.4499999999999309
  0
CIRCLE
  5
513
  8
0
  6
CONTINUOUS
 62
     7
 10
2976.0045959250779
 20
1242.1695517400181
 30
0.0
 40
1.4499999999999891
  0
CIRCLE
  5
514
  8
0
  6
CONTINUOUS
 62
     7
 10
2990.5045959250779
 20
1324.1695517400181
 30
0.0
 40
1.4499999999999891
  0
CIRCLE
  5
515
  8
0
  6
CONTINUOUS
 62
     7
 10
2961.5045959250779
 20
1324.1695517400181
 30
0.0
 40
1.450000000000045
  0
CIRCLE
  5
516
  8
0
  6
CONTINUOUS
 62
     7
 10
2947.0045959250779
 20
1242.1695517400181
 30
0.0
 40
1.4499999999999891
  0
CIRCLE
  5
517
  8
0
  6
CONTINUOUS
 62
     7
 10
2918.0045959250779
 20
1242.1695517400181
 30
0.0
 40
1.4499999999999891
  0
CIRCLE
  5
518
  8
0
  6
CONTINUOUS
 62
     7
 10
2932.5045959250779
 20
1324.1695517400181
 30
0.0
 40
1.4499999999999891
  0
CIRCLE
  5
519
  8
0
  6
CONTINUOUS
 62
     7
 10
2903.5045959250779
 20
1324.1695517400181
 30
0.0
 40
1.450000000000045
  0
CIRCLE
  5
51A
  8
0
  6
CONTINUOUS
 62
     7
 10
2889.0045959250779
 20
1242.1695517400181
 30
0.0
 40
1.4499999999999891
  0
CIRCLE
  5
51B
  8
0
  6
CONTINUOUS
 62
     7
 10
2860.0045959250779
 20
1242.1695517400181
 30
0.0
 40
1.4499999999999891
  0
CIRCLE
  5
51C
  8
0
  6
CONTINUOUS
 62
     7
 10
2831.0045959250779
 20
1242.1695517400181
 30
0.0
 40
1.450000000000045
  0
CIRCLE
  5
51D
  8
0
  6
CONTINUOUS
 62
     7
 10
2802.0045959250779
 20
1242.1695517400181
 30
0.0
 40
1.4499999999999891
  0
CIRCLE
  5
51E
  8
0
  6
CONTINUOUS
 62
     7
 10
2874.5045959250779
 20
1324.1695517400181
 30
0.0
 40
1.4499999999999891
  0
CIRCLE
  5
51F
  8
0
  6
CONTINUOUS
 62
     7
 10
2845.5045959250779
 20
1324.1695517400181
 30
0.0
 40
1.450000000000045
  0
CIRCLE
  5
520
  8
0
  6
CONTINUOUS
 62
     7
 10
2816.5045959250779
 20
1324.1695517400181
 30
0.0
 40
1.4499999999999891
  0
CIRCLE
  5
521
  8
0
  6
CONTINUOUS
 62
     7
 10
2787.504595925077
 20
1324.1695517400181
 30
0.0
 40
1.450000000000045
  0
CIRCLE
  5
522
  8
0
  6
CONTINUOUS
 62
     7
 10
2758.5045959250779
 20
1324.1695517400181
 30
0.0
 40
1.4499999999999891
  0
CIRCLE
  5
523
  8
0
  6
CONTINUOUS
 62
     7
 10
2773.004595925077
 20
1242.1695517400181
 30
0.0
 40
1.450000000000045
  0
ARC
  5
524
  8
0
  6
CONTINUOUS
 62
     7
 10
2744.7545959250779
 20
1242.1695517400181
 30
0.0
 40
3.000000000000028
 50
270.0
 51
90.0
  0
LINE
  5
525
  8
0
  6
CONTINUOUS
 62
     7
 10
2731.7545959250779
 20
1239.1695517400181
 30
0.0
 11
2744.7545959250779
 21
1239.1695517400181
 31
0.0
  0
LINE
  5
526
  8
0
  6
CONTINUOUS
 62
     7
 10
2731.7545959250779
 20
1235.169631157218
 30
0.0
 11
2731.7545959250779
 21
1239.1695517400181
 31
0.0
  0
LINE
  5
527
  8
0
  6
CONTINUOUS
 62
     7
 10
2731.7545959250779
 20
1235.169631157218
 30
0.0
 11
2750.757109778177
 21
1235.169631157218
 31
0.0
  0
ARC
  5
528
  8
0
  6
CONTINUOUS
 62
     7
 10
2750.757109778177
 20
1255.169631157218
 30
0.0
 40
20.0
 50
270.0
 51
275.71044296350112
  0
LINE
  5
529
  8
0
  6
CONTINUOUS
 62
     7
 10
2752.7471319981769
 20
1235.268882137018
 30
0.0
 11
2780.7620598520771
 21
1238.0703007602181
 31
0.0
  0
ARC
  5
52A
  8
0
  6
CONTINUOUS
 62
     7
 10
2782.752082072077
 20
1218.1695517400181
 30
0.0
 40
20.000000000000028
 50
90.0
 51
95.710442963501066
  0
LINE
  5
52B
  8
0
  6
CONTINUOUS
 62
     7
 10
2782.752082072077
 20
1238.1695517400181
 30
0.0
 11
3126.1754185814771
 21
1238.1695517400181
 31
0.0
  0
ARC
  5
52C
  8
0
  6
CONTINUOUS
 62
     7
 10
3126.1754185814771
 20
1258.1695517400181
 30
0.0
 40
20.000000000000028
 50
270.0
 51
279.02928641420539
  0
LINE
  5
52D
  8
0
  6
CONTINUOUS
 62
     7
 10
3129.3142044994779
 20
1238.4173867204181
 30
0.0
 11
3226.0684745168769
 21
1253.7924577539179
 31
0.0
  0
ARC
  5
52E
  8
0
  6
CONTINUOUS
 62
     7
 10
3225.754595925077
 20
1255.7676742558181
 30
0.0
 40
2.0
 50
279.02928641420539
 51
0.0
  0
LINE
  5
52F
  8
0
  6
CONTINUOUS
 62
     7
 10
3227.754595925077
 20
1257.1695517400181
 30
0.0
 11
3227.754595925077
 21
1255.7676742558181
 31
0.0
  0
LINE
  5
530
  8
0
  6
CONTINUOUS
 62
     7
 10
3225.0545959250771
 20
1257.1695517400181
 30
0.0
 11
3227.754595925077
 21
1257.1695517400181
 31
0.0
  0
LINE
  5
531
  8
0
  6
CONTINUOUS
 62
     7
 10
3225.0545959250771
 20
1281.719551740018
 30
0.0
 11
3225.0545959250771
 21
1257.1695517400181
 31
0.0
  0
LINE
  5
532
  8
0
  6
CONTINUOUS
 62
     7
 10
2978.054595925078
 20
1281.719551740018
 30
0.0
 11
3225.0545959250771
 21
1281.719551740018
 31
0.0
  0
LINE
  5
533
  8
0
  6
CONTINUOUS
 62
     7
 10
2978.054595925078
 20
1284.6195517400181
 30
0.0
 11
2978.054595925078
 21
1281.719551740018
 31
0.0
  0
LINE
  5
534
  8
0
  6
CONTINUOUS
 62
     7
 10
2978.054595925078
 20
1284.6195517400181
 30
0.0
 11
3225.0545959250771
 21
1284.6195517400181
 31
0.0
  0
LINE
  5
535
  8
0
  6
CONTINUOUS
 62
     7
 10
3225.0545959250771
 20
1309.1695517400181
 30
0.0
 11
3225.0545959250771
 21
1284.6195517400181
 31
0.0
  0
LINE
  5
536
  8
0
  6
CONTINUOUS
 62
     7
 10
3227.754595925077
 20
1309.1695517400181
 30
0.0
 11
3225.0545959250771
 21
1309.1695517400181
 31
0.0
  0
LINE
  5
537
  8
0
  6
CONTINUOUS
 62
     7
 10
3227.754595925077
 20
1310.571429224218
 30
0.0
 11
3227.754595925077
 21
1309.1695517400181
 31
0.0
  0
ARC
  5
538
  8
0
  6
CONTINUOUS
 62
     7
 10
3225.754595925077
 20
1310.571429224218
 30
0.0
 40
2.0000000000000151
 50
0.0
 51
80.970713585794584
  0
LINE
  5
539
  8
0
  6
CONTINUOUS
 62
     7
 10
3129.3142044994779
 20
1327.921716759618
 30
0.0
 11
3226.0684745168769
 21
1312.546645726118
 31
0.0
  0
ARC
  5
53A
  8
0
  6
CONTINUOUS
 62
     7
 10
3126.1754185814771
 20
1308.1695517400181
 30
0.0
 40
20.0
 50
80.970713585794584
 51
90.0
  0
LINE
  5
53B
  8
0
  6
CONTINUOUS
 62
     7
 10
2782.752082072077
 20
1328.1695517400181
 30
0.0
 11
3126.1754185814771
 21
1328.1695517400181
 31
0.0
  0
ARC
  5
53C
  8
0
  6
CONTINUOUS
 62
     7
 10
2782.752082072077
 20
1348.1695517400181
 30
0.0
 40
20.000000000000028
 50
264.28955703649888
 51
270.0
  0
LINE
  5
53D
  8
0
  6
CONTINUOUS
 62
     7
 10
2752.7471319981769
 20
1331.0702213430179
 30
0.0
 11
2780.7620598520771
 21
1328.268802719818
 31
0.0
  0
ARC
  5
53E
  8
0
  6
CONTINUOUS
 62
     7
 10
2750.757109778177
 20
1311.1694723228179
 30
0.0
 40
20.000000000000011
 50
84.28955703649892
 51
90.0
  0
LINE
  5
53F
  8
0
  6
CONTINUOUS
 62
     7
 10
2731.7545959250779
 20
1331.1694723228179
 30
0.0
 11
2750.757109778177
 21
1331.1694723228179
 31
0.0
  0
LINE
  5
540
  8
0
  6
CONTINUOUS
 62
     7
 10
2731.7545959250779
 20
1245.1695517400181
 30
0.0
 11
2731.7545959250779
 21
1331.1694723228179
 31
0.0
  0
LINE
  5
541
  8
0
  6
CONTINUOUS
 62
     7
 10
2731.7545959250779
 20
1245.1695517400181
 30
0.0
 11
2744.7545959250779
 21
1245.1695517400181
 31
0.0
  0
LINE
  5
542
  8
0
  6
CONTINUOUS
 62
     7
 10
2881.7545959250779
 20
1257.1695517400181
 30
0.0
 11
2884.754595925077
 21
1257.1695517400181
 31
0.0
  0
LINE
  5
543
  8
0
  6
CONTINUOUS
 62
     7
 10
2881.7545959250779
 20
1257.1695517400181
 30
0.0
 11
2881.7545959250779
 21
1309.1695517400181
 31
0.0
  0
LINE
  5
544
  8
0
  6
CONTINUOUS
 62
     7
 10
2881.7545959250779
 20
1309.1695517400181
 30
0.0
 11
2884.754595925077
 21
1309.1695517400181
 31
0.0
  0
LINE
  5
545
  8
0
  6
CONTINUOUS
 62
     7
 10
2884.754595925077
 20
1309.1695517400181
 30
0.0
 11
2884.754595925077
 21
1257.1695517400181
 31
0.0
  0
ARC
  5
562
  8
0
  6
CONTINUOUS
 62
     7
 10
3293.0050063973881
 20
1495.2670167479539
 30
0.0
 40
26.0
 50
172.81924421850189
 51
187.18075578149799
  0
ARC
  5
563
  8
0
  6
CONTINUOUS
 62
     7
 10
3269.1932445977891
 20
1492.267016747955
 30
0.0
 40
1.999999999999998
 50
187.18075578149799
 51
270.0
  0
LINE
  5
564
  8
0
  6
CONTINUOUS
 62
     7
 10
3269.1932445977891
 20
1490.2670167479539
 30
0.0
 11
3274.0050063973881
 21
1490.2670167479539
 31
0.0
  0
ARC
  5
565
  8
0
  6
CONTINUOUS
 62
     7
 10
3274.0050063973881
 20
1476.267016747955
 30
0.0
 40
14.0
 50
0.0
 51
90.0
  0
LINE
  5
566
  8
0
  6
CONTINUOUS
 62
     7
 10
3288.0050063973881
 20
1476.267016747955
 30
0.0
 11
3288.0050063973881
 21
1471.455254948354
 31
0.0
  0
ARC
  5
567
  8
0
  6
CONTINUOUS
 62
     7
 10
3290.0050063973881
 20
1471.455254948354
 30
0.0
 40
2.0
 50
180.0
 51
262.81924421848919
  0
ARC
  5
568
  8
0
  6
CONTINUOUS
 62
     7
 10
3293.0050063973881
 20
1495.2670167479539
 30
0.0
 40
26.0
 50
262.81924421848919
 51
277.18075578151081
  0
ARC
  5
569
  8
0
  6
CONTINUOUS
 62
     7
 10
3296.0050063973881
 20
1471.455254948354
 30
0.0
 40
2.0
 50
277.18075578151081
 51
0.0
  0
LINE
  5
56A
  8
0
  6
CONTINUOUS
 62
     7
 10
3298.005006397389
 20
1471.455254948354
 30
0.0
 11
3298.005006397389
 21
1476.267016747955
 31
0.0
  0
ARC
  5
56B
  8
0
  6
CONTINUOUS
 62
     7
 10
3312.0050063973881
 20
1476.267016747955
 30
0.0
 40
14.0
 50
90.0
 51
180.0
  0
LINE
  5
56C
  8
0
  6
CONTINUOUS
 62
     7
 10
3312.0050063973881
 20
1490.2670167479539
 30
0.0
 11
3316.8167681969881
 21
1490.2670167479539
 31
0.0
  0
ARC
  5
56D
  8
0
  6
CONTINUOUS
 62
     7
 10
3316.8167681969881
 20
1492.267016747955
 30
0.0
 40
1.9999999999999989
 50
270.0
 51
352.81924421850198
  0
ARC
  5
56E
  8
0
  6
CONTINUOUS
 62
     7
 10
3293.0050063973881
 20
1495.2670167479539
 30
0.0
 40
26.0
 50
352.81924421850198
 51
7.180755781498033
  0
ARC
  5
56F
  8
0
  6
CONTINUOUS
 62
     7
 10
3316.8167681969881
 20
1498.2670167479539
 30
0.0
 40
2.0000000000000031
 50
7.180755781498033
 51
90.0
  0
LINE
  5
570
  8
0
  6
CONTINUOUS
 62
     7
 10
3316.8167681969881
 20
1500.267016747955
 30
0.0
 11
3312.0050063973881
 21
1500.267016747955
 31
0.0
  0
ARC
  5
571
  8
0
  6
CONTINUOUS
 62
     7
 10
3312.0050063973881
 20
1514.2670167479539
 30
0.0
 40
14.0
 50
180.0
 51
270.0
  0
LINE
  5
572
  8
0
  6
CONTINUOUS
 62
     7
 10
3298.005006397389
 20
1514.2670167479539
 30
0.0
 11
3298.005006397389
 21
1519.0787785475541
 31
0.0
  0
ARC
  5
573
  8
0
  6
CONTINUOUS
 62
     7
 10
3296.0050063973881
 20
1519.0787785475541
 30
0.0
 40
2.0
 50
0.0
 51
82.819244218489175
  0
ARC
  5
574
  8
0
  6
CONTINUOUS
 62
     7
 10
3293.0050063973881
 20
1495.2670167479539
 30
0.0
 40
26.0
 50
82.819244218489175
 51
97.180755781510811
  0
ARC
  5
575
  8
0
  6
CONTINUOUS
 62
     7
 10
3290.0050063973881
 20
1519.0787785475541
 30
0.0
 40
2.0000000000000031
 50
97.180755781510811
 51
180.0
  0
LINE
  5
576
  8
0
  6
CONTINUOUS
 62
     7
 10
3288.0050063973881
 20
1519.0787785475541
 30
0.0
 11
3288.0050063973881
 21
1514.2670167479539
 31
0.0
  0
ARC
  5
577
  8
0
  6
CONTINUOUS
 62
     7
 10
3274.0050063973881
 20
1514.2670167479539
 30
0.0
 40
14.0
 50
270.0
 51
0.0
  0
LINE
  5
578
  8
0
  6
CONTINUOUS
 62
     7
 10
3274.0050063973881
 20
1500.267016747955
 30
0.0
 11
3269.1932445977891
 21
1500.267016747955
 31
0.0
  0
ARC
  5
579
  8
0
  6
CONTINUOUS
 62
     7
 10
3269.1932445977891
 20
1498.2670167479539
 30
0.0
 40
2.0
 50
90.0
 51
172.81924421850189
  0
ARC
  5
A5C
  8
0
  6
CONTINUOUS
 62
     7
 10
2918.6431757065288
 20
1489.1793224927701
 30
0.0
 40
0.5
 50
0.0
 51
180.0
  0
LINE
  5
A5D
  8
0
  6
CONTINUOUS
 62
     7
 10
2918.1431757065288
 20
1489.1793224927701
 30
0.0
 11
2918.1431757065288
 21
1487.7841787227701
 31
0.0
  0
LINE
  5
A5E
  8
0
  6
CONTINUOUS
 62
     7
 10
2918.1431757065288
 20
1487.7841787227701
 30
0.0
 11
2907.8416360434289
 21
1490.20323036887
 31
0.0
  0
LINE
  5
A5F
  8
0
  6
CONTINUOUS
 62
     7
 10
2907.8416360434289
 20
1490.20323036887
 30
0.0
 11
2907.8416360434289
 21
1493.6493224927699
 31
0.0
  0
LINE
  5
A60
  8
0
  6
CONTINUOUS
 62
     7
 10
2910.6416360434282
 20
1493.6493224927699
 30
0.0
 11
2907.8416360434289
 21
1493.6493224927699
 31
0.0
  0
LINE
  5
A61
  8
0
  6
CONTINUOUS
 62
     7
 10
2910.6416360434282
 20
1515.6493224927699
 30
0.0
 11
2910.6416360434282
 21
1493.6493224927699
 31
0.0
  0
LINE
  5
A62
  8
0
  6
CONTINUOUS
 62
     7
 10
2910.6416360434282
 20
1515.6493224927699
 30
0.0
 11
2907.8416360434289
 21
1515.6493224927699
 31
0.0
  0
LINE
  5
A63
  8
0
  6
CONTINUOUS
 62
     7
 10
2907.8416360434289
 20
1519.09541461667
 30
0.0
 11
2907.8416360434289
 21
1515.6493224927699
 31
0.0
  0
LINE
  5
A64
  8
0
  6
CONTINUOUS
 62
     7
 10
2911.8831757065282
 20
1520.0444662627699
 30
0.0
 11
2907.8416360434289
 21
1519.09541461667
 31
0.0
  0
LINE
  5
A65
  8
0
  6
CONTINUOUS
 62
     7
 10
2911.8831757065282
 20
1518.6493224927699
 30
0.0
 11
2911.8831757065282
 21
1520.0444662627699
 31
0.0
  0
ARC
  5
A66
  8
0
  6
CONTINUOUS
 62
     7
 10
2912.3831757065282
 20
1518.6493224927699
 30
0.0
 40
0.5
 50
180.0
 51
0.0
  0
LINE
  5
A67
  8
0
  6
CONTINUOUS
 62
     7
 10
2912.8831757065282
 20
1518.6493224927699
 30
0.0
 11
2912.8831757065282
 21
1520.27929054387
 31
0.0
  0
LINE
  5
A68
  8
0
  6
CONTINUOUS
 62
     7
 10
2924.4031757065281
 20
1522.98446626277
 30
0.0
 11
2912.8831757065282
 21
1520.27929054387
 31
0.0
  0
LINE
  5
A69
  8
0
  6
CONTINUOUS
 62
     7
 10
2924.4031757065281
 20
1521.58932249277
 30
0.0
 11
2924.4031757065281
 21
1522.98446626277
 31
0.0
  0
ARC
  5
A6A
  8
0
  6
CONTINUOUS
 62
     7
 10
2924.9031757065281
 20
1521.58932249277
 30
0.0
 40
0.5
 50
180.0
 51
0.0
  0
LINE
  5
A6B
  8
0
  6
CONTINUOUS
 62
     7
 10
2925.4031757065281
 20
1521.58932249277
 30
0.0
 11
2925.4031757065281
 21
1523.2192905438701
 31
0.0
  0
LINE
  5
A6C
  8
0
  6
CONTINUOUS
 62
     7
 10
2936.6031757065289
 20
1525.8493224927699
 30
0.0
 11
2925.4031757065281
 21
1523.2192905438701
 31
0.0
  0
LINE
  5
A6D
  8
0
  6
CONTINUOUS
 62
     7
 10
2936.9231757065281
 20
1525.8493224927699
 30
0.0
 11
2936.6031757065289
 21
1525.8493224927699
 31
0.0
  0
LINE
  5
A6E
  8
0
  6
CONTINUOUS
 62
     7
 10
2936.9231757065281
 20
1524.52932249277
 30
0.0
 11
2936.9231757065281
 21
1525.8493224927699
 31
0.0
  0
ARC
  5
A6F
  8
0
  6
CONTINUOUS
 62
     7
 10
2937.4231757065281
 20
1524.52932249277
 30
0.0
 40
0.5
 50
180.0
 51
0.0
  0
LINE
  5
A70
  8
0
  6
CONTINUOUS
 62
     7
 10
2937.9231757065281
 20
1524.52932249277
 30
0.0
 11
2937.9231757065281
 21
1525.8493224927699
 31
0.0
  0
LINE
  5
A71
  8
0
  6
CONTINUOUS
 62
     7
 10
2949.443175706529
 20
1525.8493224927699
 30
0.0
 11
2937.9231757065281
 21
1525.8493224927699
 31
0.0
  0
LINE
  5
A72
  8
0
  6
CONTINUOUS
 62
     7
 10
2949.443175706529
 20
1524.52932249277
 30
0.0
 11
2949.443175706529
 21
1525.8493224927699
 31
0.0
  0
ARC
  5
A73
  8
0
  6
CONTINUOUS
 62
     7
 10
2949.943175706529
 20
1524.52932249277
 30
0.0
 40
0.5
 50
180.0
 51
0.0
  0
LINE
  5
A74
  8
0
  6
CONTINUOUS
 62
     7
 10
2950.443175706529
 20
1524.52932249277
 30
0.0
 11
2950.443175706529
 21
1525.8493224927699
 31
0.0
  0
LINE
  5
A75
  8
0
  6
CONTINUOUS
 62
     7
 10
2961.9631757065281
 20
1525.8493224927699
 30
0.0
 11
2950.443175706529
 21
1525.8493224927699
 31
0.0
  0
LINE
  5
A76
  8
0
  6
CONTINUOUS
 62
     7
 10
2961.9631757065281
 20
1524.52932249277
 30
0.0
 11
2961.9631757065281
 21
1525.8493224927699
 31
0.0
  0
ARC
  5
A77
  8
0
  6
CONTINUOUS
 62
     7
 10
2962.4631757065281
 20
1524.52932249277
 30
0.0
 40
0.5
 50
180.0
 51
0.0
  0
LINE
  5
A78
  8
0
  6
CONTINUOUS
 62
     7
 10
2962.963175706529
 20
1524.52932249277
 30
0.0
 11
2962.963175706529
 21
1525.8493224927699
 31
0.0
  0
LINE
  5
A79
  8
0
  6
CONTINUOUS
 62
     7
 10
2974.483175706529
 20
1525.8493224927699
 30
0.0
 11
2962.963175706529
 21
1525.8493224927699
 31
0.0
  0
LINE
  5
A7A
  8
0
  6
CONTINUOUS
 62
     7
 10
2974.483175706529
 20
1524.52932249277
 30
0.0
 11
2974.483175706529
 21
1525.8493224927699
 31
0.0
  0
ARC
  5
A7B
  8
0
  6
CONTINUOUS
 62
     7
 10
2974.983175706529
 20
1524.52932249277
 30
0.0
 40
0.5000000000000142
 50
180.0
 51
0.0
  0
LINE
  5
A7C
  8
0
  6
CONTINUOUS
 62
     7
 10
2975.483175706529
 20
1524.52932249277
 30
0.0
 11
2975.483175706529
 21
1525.8493224927699
 31
0.0
  0
LINE
  5
A7D
  8
0
  6
CONTINUOUS
 62
     7
 10
2987.0031757065281
 20
1525.8493224927699
 30
0.0
 11
2975.483175706529
 21
1525.8493224927699
 31
0.0
  0
LINE
  5
A7E
  8
0
  6
CONTINUOUS
 62
     7
 10
2987.0031757065281
 20
1524.52932249277
 30
0.0
 11
2987.0031757065281
 21
1525.8493224927699
 31
0.0
  0
ARC
  5
A7F
  8
0
  6
CONTINUOUS
 62
     7
 10
2987.503175706529
 20
1524.52932249277
 30
0.0
 40
0.5
 50
180.0
 51
0.0
  0
LINE
  5
A80
  8
0
  6
CONTINUOUS
 62
     7
 10
2988.003175706529
 20
1524.52932249277
 30
0.0
 11
2988.003175706529
 21
1525.8493224927699
 31
0.0
  0
LINE
  5
A81
  8
0
  6
CONTINUOUS
 62
     7
 10
2999.523175706528
 20
1525.8493224927699
 30
0.0
 11
2988.003175706529
 21
1525.8493224927699
 31
0.0
  0
LINE
  5
A82
  8
0
  6
CONTINUOUS
 62
     7
 10
2999.523175706528
 20
1524.52932249277
 30
0.0
 11
2999.523175706528
 21
1525.8493224927699
 31
0.0
  0
ARC
  5
A83
  8
0
  6
CONTINUOUS
 62
     7
 10
3000.0231757065289
 20
1524.52932249277
 30
0.0
 40
0.5000000000000142
 50
180.0
 51
0.0
  0
LINE
  5
A84
  8
0
  6
CONTINUOUS
 62
     7
 10
3000.5231757065289
 20
1524.52932249277
 30
0.0
 11
3000.5231757065289
 21
1525.8493224927699
 31
0.0
  0
LINE
  5
A85
  8
0
  6
CONTINUOUS
 62
     7
 10
3012.0431757065289
 20
1525.8493224927699
 30
0.0
 11
3000.5231757065289
 21
1525.8493224927699
 31
0.0
  0
LINE
  5
A86
  8
0
  6
CONTINUOUS
 62
     7
 10
3012.0431757065289
 20
1524.52932249277
 30
0.0
 11
3012.0431757065289
 21
1525.8493224927699
 31
0.0
  0
ARC
  5
A87
  8
0
  6
CONTINUOUS
 62
     7
 10
3012.5431757065289
 20
1524.52932249277
 30
0.0
 40
0.5
 50
180.0
 51
0.0
  0
LINE
  5
A88
  8
0
  6
CONTINUOUS
 62
     7
 10
3013.0431757065289
 20
1524.52932249277
 30
0.0
 11
3013.0431757065289
 21
1525.8493224927699
 31
0.0
  0
LINE
  5
A89
  8
0
  6
CONTINUOUS
 62
     7
 10
3024.5631757065289
 20
1525.8493224927699
 30
0.0
 11
3013.0431757065289
 21
1525.8493224927699
 31
0.0
  0
LINE
  5
A8A
  8
0
  6
CONTINUOUS
 62
     7
 10
3024.5631757065289
 20
1524.52932249277
 30
0.0
 11
3024.5631757065289
 21
1525.8493224927699
 31
0.0
  0
ARC
  5
A8B
  8
0
  6
CONTINUOUS
 62
     7
 10
3025.0631757065289
 20
1524.52932249277
 30
0.0
 40
0.5
 50
180.0
 51
0.0
  0
LINE
  5
A8C
  8
0
  6
CONTINUOUS
 62
     7
 10
3025.563175706528
 20
1524.52932249277
 30
0.0
 11
3025.563175706528
 21
1525.8493224927699
 31
0.0
  0
LINE
  5
A8D
  8
0
  6
CONTINUOUS
 62
     7
 10
3037.0831757065289
 20
1525.8493224927699
 30
0.0
 11
3025.563175706528
 21
1525.8493224927699
 31
0.0
  0
LINE
  5
A8E
  8
0
  6
CONTINUOUS
 62
     7
 10
3037.0831757065289
 20
1524.52932249277
 30
0.0
 11
3037.0831757065289
 21
1525.8493224927699
 31
0.0
  0
ARC
  5
A8F
  8
0
  6
CONTINUOUS
 62
     7
 10
3037.5831757065289
 20
1524.52932249277
 30
0.0
 40
0.5
 50
180.0
 51
0.0
  0
LINE
  5
A90
  8
0
  6
CONTINUOUS
 62
     7
 10
3038.0831757065289
 20
1524.52932249277
 30
0.0
 11
3038.0831757065289
 21
1525.8493224927699
 31
0.0
  0
LINE
  5
A91
  8
0
  6
CONTINUOUS
 62
     7
 10
3049.6031757065289
 20
1525.8493224927699
 30
0.0
 11
3038.0831757065289
 21
1525.8493224927699
 31
0.0
  0
LINE
  5
A92
  8
0
  6
CONTINUOUS
 62
     7
 10
3049.6031757065289
 20
1524.52932249277
 30
0.0
 11
3049.6031757065289
 21
1525.8493224927699
 31
0.0
  0
ARC
  5
A93
  8
0
  6
CONTINUOUS
 62
     7
 10
3050.103175706528
 20
1524.52932249277
 30
0.0
 40
0.5000000000000071
 50
180.0
 51
0.0
  0
LINE
  5
A94
  8
0
  6
CONTINUOUS
 62
     7
 10
3050.6031757065289
 20
1524.52932249277
 30
0.0
 11
3050.6031757065289
 21
1525.8493224927699
 31
0.0
  0
LINE
  5
A95
  8
0
  6
CONTINUOUS
 62
     7
 10
3062.1231757065289
 20
1525.8493224927699
 30
0.0
 11
3050.6031757065289
 21
1525.8493224927699
 31
0.0
  0
LINE
  5
A96
  8
0
  6
CONTINUOUS
 62
     7
 10
3062.1231757065289
 20
1524.52932249277
 30
0.0
 11
3062.1231757065289
 21
1525.8493224927699
 31
0.0
  0
ARC
  5
A97
  8
0
  6
CONTINUOUS
 62
     7
 10
3062.6231757065289
 20
1524.52932249277
 30
0.0
 40
0.5000000000000036
 50
180.0
 51
0.0
  0
LINE
  5
A98
  8
0
  6
CONTINUOUS
 62
     7
 10
3063.1231757065279
 20
1524.52932249277
 30
0.0
 11
3063.1231757065279
 21
1525.8493224927699
 31
0.0
  0
LINE
  5
A99
  8
0
  6
CONTINUOUS
 62
     7
 10
3069.6853739512289
 20
1525.8493224927699
 30
0.0
 11
3063.1231757065279
 21
1525.8493224927699
 31
0.0
  0
ARC
  5
A9A
  8
0
  6
CONTINUOUS
 62
     7
 10
3069.6853739512289
 20
1523.8493224927699
 30
0.0
 40
2.0
 50
7.1020143222021996
 51
90.0
  0
ARC
  5
A9B
  8
0
  6
CONTINUOUS
 62
     7
 10
3075.1431757065288
 20
1524.52932249277
 30
0.0
 40
3.5
 50
187.10201432220219
 51
270.0
  0
LINE
  5
A9C
  8
0
  6
CONTINUOUS
 62
     7
 10
3075.1431757065288
 20
1521.02932249277
 30
0.0
 11
3080.1431757065279
 21
1521.02932249277
 31
0.0
  0
LINE
  5
A9D
  8
0
  6
CONTINUOUS
 62
     7
 10
3080.1431757065279
 20
1515.6493224927699
 30
0.0
 11
3080.1431757065279
 21
1521.02932249277
 31
0.0
  0
LINE
  5
A9E
  8
0
  6
CONTINUOUS
 62
     7
 10
3077.3431757065282
 20
1515.6493224927699
 30
0.0
 11
3080.1431757065279
 21
1515.6493224927699
 31
0.0
  0
LINE
  5
A9F
  8
0
  6
CONTINUOUS
 62
     7
 10
3077.3431757065282
 20
1515.6493224927699
 30
0.0
 11
3077.3431757065282
 21
1505.99932249277
 31
0.0
  0
LINE
  5
AA0
  8
0
  6
CONTINUOUS
 62
     7
 10
3077.3431757065282
 20
1505.99932249277
 30
0.0
 11
2987.3431757065291
 21
1505.99932249277
 31
0.0
  0
LINE
  5
AA1
  8
0
  6
CONTINUOUS
 62
     7
 10
2987.3431757065291
 20
1505.99932249277
 30
0.0
 11
2987.3431757065291
 21
1503.29932249277
 31
0.0
  0
LINE
  5
AA2
  8
0
  6
CONTINUOUS
 62
     7
 10
3077.3431757065282
 20
1503.29932249277
 30
0.0
 11
2987.3431757065291
 21
1503.29932249277
 31
0.0
  0
LINE
  5
AA3
  8
0
  6
CONTINUOUS
 62
     7
 10
3077.3431757065282
 20
1503.29932249277
 30
0.0
 11
3077.3431757065282
 21
1493.6493224927699
 31
0.0
  0
LINE
  5
AA4
  8
0
  6
CONTINUOUS
 62
     7
 10
3077.3431757065282
 20
1493.6493224927699
 30
0.0
 11
3080.1431757065279
 21
1493.6493224927699
 31
0.0
  0
LINE
  5
AA5
  8
0
  6
CONTINUOUS
 62
     7
 10
3080.1431757065279
 20
1483.4493224927701
 30
0.0
 11
3080.1431757065279
 21
1493.6493224927699
 31
0.0
  0
LINE
  5
AA6
  8
0
  6
CONTINUOUS
 62
     7
 10
3080.1431757065279
 20
1483.4493224927701
 30
0.0
 11
3069.3831757065291
 21
1483.4493224927701
 31
0.0
  0
LINE
  5
AA7
  8
0
  6
CONTINUOUS
 62
     7
 10
3069.3831757065291
 20
1484.76932249277
 30
0.0
 11
3069.3831757065291
 21
1483.4493224927701
 31
0.0
  0
ARC
  5
AA8
  8
0
  6
CONTINUOUS
 62
     7
 10
3068.8831757065282
 20
1484.76932249277
 30
0.0
 40
0.5000000000000018
 50
0.0
 51
180.0
  0
LINE
  5
AA9
  8
0
  6
CONTINUOUS
 62
     7
 10
3068.3831757065282
 20
1484.76932249277
 30
0.0
 11
3068.3831757065282
 21
1483.4493224927701
 31
0.0
  0
LINE
  5
AAA
  8
0
  6
CONTINUOUS
 62
     7
 10
3068.3831757065282
 20
1483.4493224927701
 30
0.0
 11
3056.8631757065282
 21
1483.4493224927701
 31
0.0
  0
LINE
  5
AAB
  8
0
  6
CONTINUOUS
 62
     7
 10
3056.8631757065282
 20
1484.76932249277
 30
0.0
 11
3056.8631757065282
 21
1483.4493224927701
 31
0.0
  0
ARC
  5
AAC
  8
0
  6
CONTINUOUS
 62
     7
 10
3056.3631757065282
 20
1484.76932249277
 30
0.0
 40
0.5000000000000036
 50
0.0
 51
180.0
  0
LINE
  5
AAD
  8
0
  6
CONTINUOUS
 62
     7
 10
3055.8631757065282
 20
1484.76932249277
 30
0.0
 11
3055.8631757065282
 21
1483.4493224927701
 31
0.0
  0
LINE
  5
AAE
  8
0
  6
CONTINUOUS
 62
     7
 10
3055.8631757065282
 20
1483.4493224927701
 30
0.0
 11
3044.3431757065282
 21
1483.4493224927701
 31
0.0
  0
LINE
  5
AAF
  8
0
  6
CONTINUOUS
 62
     7
 10
3044.3431757065282
 20
1484.76932249277
 30
0.0
 11
3044.3431757065282
 21
1483.4493224927701
 31
0.0
  0
ARC
  5
AB0
  8
0
  6
CONTINUOUS
 62
     7
 10
3043.8431757065282
 20
1484.76932249277
 30
0.0
 40
0.5000000000000071
 50
0.0
 51
180.0
  0
LINE
  5
AB1
  8
0
  6
CONTINUOUS
 62
     7
 10
3043.3431757065291
 20
1484.76932249277
 30
0.0
 11
3043.3431757065291
 21
1483.4493224927701
 31
0.0
  0
LINE
  5
AB2
  8
0
  6
CONTINUOUS
 62
     7
 10
3043.3431757065291
 20
1483.4493224927701
 30
0.0
 11
3031.8231757065291
 21
1483.4493224927701
 31
0.0
  0
LINE
  5
AB3
  8
0
  6
CONTINUOUS
 62
     7
 10
3031.8231757065291
 20
1484.76932249277
 30
0.0
 11
3031.8231757065291
 21
1483.4493224927701
 31
0.0
  0
ARC
  5
AB4
  8
0
  6
CONTINUOUS
 62
     7
 10
3031.3231757065282
 20
1484.76932249277
 30
0.0
 40
0.5
 50
0.0
 51
180.0
  0
LINE
  5
AB5
  8
0
  6
CONTINUOUS
 62
     7
 10
3030.8231757065282
 20
1484.76932249277
 30
0.0
 11
3030.8231757065282
 21
1483.4493224927701
 31
0.0
  0
LINE
  5
AB6
  8
0
  6
CONTINUOUS
 62
     7
 10
3030.8231757065282
 20
1483.4493224927701
 30
0.0
 11
3019.3031757065291
 21
1483.4493224927701
 31
0.0
  0
LINE
  5
AB7
  8
0
  6
CONTINUOUS
 62
     7
 10
3019.3031757065291
 20
1484.76932249277
 30
0.0
 11
3019.3031757065291
 21
1483.4493224927701
 31
0.0
  0
ARC
  5
AB8
  8
0
  6
CONTINUOUS
 62
     7
 10
3018.8031757065291
 20
1484.76932249277
 30
0.0
 40
0.5
 50
0.0
 51
180.0
  0
LINE
  5
AB9
  8
0
  6
CONTINUOUS
 62
     7
 10
3018.3031757065278
 20
1484.76932249277
 30
0.0
 11
3018.3031757065278
 21
1483.4493224927701
 31
0.0
  0
LINE
  5
ABA
  8
0
  6
CONTINUOUS
 62
     7
 10
3018.3031757065278
 20
1483.4493224927701
 30
0.0
 11
3006.7831757065278
 21
1483.4493224927701
 31
0.0
  0
LINE
  5
ABB
  8
0
  6
CONTINUOUS
 62
     7
 10
3006.7831757065278
 20
1484.76932249277
 30
0.0
 11
3006.7831757065278
 21
1483.4493224927701
 31
0.0
  0
ARC
  5
ABC
  8
0
  6
CONTINUOUS
 62
     7
 10
3006.2831757065278
 20
1484.76932249277
 30
0.0
 40
0.5
 50
0.0
 51
180.0
  0
LINE
  5
ABD
  8
0
  6
CONTINUOUS
 62
     7
 10
3005.7831757065278
 20
1484.76932249277
 30
0.0
 11
3005.7831757065278
 21
1483.4493224927701
 31
0.0
  0
LINE
  5
ABE
  8
0
  6
CONTINUOUS
 62
     7
 10
3005.7831757065278
 20
1483.4493224927701
 30
0.0
 11
2994.2631757065278
 21
1483.4493224927701
 31
0.0
  0
LINE
  5
ABF
  8
0
  6
CONTINUOUS
 62
     7
 10
2994.2631757065278
 20
1484.76932249277
 30
0.0
 11
2994.2631757065278
 21
1483.4493224927701
 31
0.0
  0
ARC
  5
AC0
  8
0
  6
CONTINUOUS
 62
     7
 10
2993.7631757065278
 20
1484.76932249277
 30
0.0
 40
0.5
 50
0.0
 51
180.0
  0
LINE
  5
AC1
  8
0
  6
CONTINUOUS
 62
     7
 10
2993.2631757065292
 20
1484.76932249277
 30
0.0
 11
2993.2631757065292
 21
1483.4493224927701
 31
0.0
  0
LINE
  5
AC2
  8
0
  6
CONTINUOUS
 62
     7
 10
2993.2631757065292
 20
1483.4493224927701
 30
0.0
 11
2981.7431757065278
 21
1483.4493224927701
 31
0.0
  0
LINE
  5
AC3
  8
0
  6
CONTINUOUS
 62
     7
 10
2981.7431757065278
 20
1484.76932249277
 30
0.0
 11
2981.7431757065278
 21
1483.4493224927701
 31
0.0
  0
ARC
  5
AC4
  8
0
  6
CONTINUOUS
 62
     7
 10
2981.2431757065292
 20
1484.76932249277
 30
0.0
 40
0.5
 50
0.0
 51
180.0
  0
LINE
  5
AC5
  8
0
  6
CONTINUOUS
 62
     7
 10
2980.7431757065292
 20
1484.76932249277
 30
0.0
 11
2980.7431757065292
 21
1483.4493224927701
 31
0.0
  0
LINE
  5
AC6
  8
0
  6
CONTINUOUS
 62
     7
 10
2980.7431757065292
 20
1483.4493224927701
 30
0.0
 11
2969.2231757065279
 21
1483.4493224927701
 31
0.0
  0
LINE
  5
AC7
  8
0
  6
CONTINUOUS
 62
     7
 10
2969.2231757065279
 20
1484.76932249277
 30
0.0
 11
2969.2231757065279
 21
1483.4493224927701
 31
0.0
  0
ARC
  5
AC8
  8
0
  6
CONTINUOUS
 62
     7
 10
2968.7231757065292
 20
1484.76932249277
 30
0.0
 40
0.5
 50
0.0
 51
180.0
  0
LINE
  5
AC9
  8
0
  6
CONTINUOUS
 62
     7
 10
2968.2231757065279
 20
1484.76932249277
 30
0.0
 11
2968.2231757065279
 21
1483.4493224927701
 31
0.0
  0
LINE
  5
ACA
  8
0
  6
CONTINUOUS
 62
     7
 10
2968.2231757065279
 20
1483.4493224927701
 30
0.0
 11
2956.7031757065288
 21
1483.4493224927701
 31
0.0
  0
LINE
  5
ACB
  8
0
  6
CONTINUOUS
 62
     7
 10
2956.7031757065288
 20
1484.76932249277
 30
0.0
 11
2956.7031757065288
 21
1483.4493224927701
 31
0.0
  0
ARC
  5
ACC
  8
0
  6
CONTINUOUS
 62
     7
 10
2956.2031757065288
 20
1484.76932249277
 30
0.0
 40
0.5
 50
0.0
 51
180.0
  0
LINE
  5
ACD
  8
0
  6
CONTINUOUS
 62
     7
 10
2955.7031757065288
 20
1484.76932249277
 30
0.0
 11
2955.7031757065288
 21
1483.4493224927701
 31
0.0
  0
LINE
  5
ACE
  8
0
  6
CONTINUOUS
 62
     7
 10
2955.7031757065288
 20
1483.4493224927701
 30
0.0
 11
2944.1831757065288
 21
1483.4493224927701
 31
0.0
  0
LINE
  5
ACF
  8
0
  6
CONTINUOUS
 62
     7
 10
2944.1831757065288
 20
1484.76932249277
 30
0.0
 11
2944.1831757065288
 21
1483.4493224927701
 31
0.0
  0
ARC
  5
AD0
  8
0
  6
CONTINUOUS
 62
     7
 10
2943.6831757065279
 20
1484.76932249277
 30
0.0
 40
0.5
 50
0.0
 51
180.0
  0
LINE
  5
AD1
  8
0
  6
CONTINUOUS
 62
     7
 10
2943.1831757065279
 20
1484.76932249277
 30
0.0
 11
2943.1831757065279
 21
1483.4493224927701
 31
0.0
  0
LINE
  5
AD2
  8
0
  6
CONTINUOUS
 62
     7
 10
2943.1831757065279
 20
1483.4493224927701
 30
0.0
 11
2936.6031757065289
 21
1483.4493224927701
 31
0.0
  0
LINE
  5
AD3
  8
0
  6
CONTINUOUS
 62
     7
 10
2936.6031757065289
 20
1483.4493224927701
 30
0.0
 11
2931.6631757065288
 21
1484.6093544416699
 31
0.0
  0
LINE
  5
AD4
  8
0
  6
CONTINUOUS
 62
     7
 10
2931.6631757065288
 20
1486.23932249277
 30
0.0
 11
2931.6631757065288
 21
1484.6093544416699
 31
0.0
  0
ARC
  5
AD5
  8
0
  6
CONTINUOUS
 62
     7
 10
2931.1631757065288
 20
1486.23932249277
 30
0.0
 40
0.5
 50
0.0
 51
180.0
  0
LINE
  5
AD6
  8
0
  6
CONTINUOUS
 62
     7
 10
2930.6631757065279
 20
1486.23932249277
 30
0.0
 11
2930.6631757065279
 21
1484.84417872277
 31
0.0
  0
LINE
  5
AD7
  8
0
  6
CONTINUOUS
 62
     7
 10
2930.6631757065279
 20
1484.84417872277
 30
0.0
 11
2919.1431757065279
 21
1487.5493544416699
 31
0.0
  0
LINE
  5
AD8
  8
0
  6
CONTINUOUS
 62
     7
 10
2919.1431757065279
 20
1489.1793224927701
 30
0.0
 11
2919.1431757065279
 21
1487.5493544416699
 31
0.0
  0
ARC
  5
AD9
  8
0
  6
CONTINUOUS
 62
     7
 10
2916.3916643436419
 20
1433.135166599777
 30
0.0
 40
0.7351913151207157
 50
0.0
 51
180.0
  0
LINE
  5
ADA
  8
0
  6
CONTINUOUS
 62
     7
 10
2915.6564730285431
 20
1433.135166599777
 30
0.0
 11
2915.6564730285431
 21
1431.7952514613769
 31
0.0
  0
LINE
  5
ADB
  8
0
  6
CONTINUOUS
 62
     7
 10
2915.6564730285431
 20
1431.7952514613769
 30
0.0
 11
2908.7201246805421
 21
1433.424074475977
 31
0.0
  0
LINE
  5
ADC
  8
0
  6
CONTINUOUS
 62
     7
 10
2908.7201246805421
 20
1433.424074475977
 30
0.0
 11
2908.7201246805421
 21
1436.8701665997769
 31
0.0
  0
LINE
  5
ADD
  8
0
  6
CONTINUOUS
 62
     7
 10
2911.0293664346418
 20
1436.8701665997769
 30
0.0
 11
2908.7201246805421
 21
1436.8701665997769
 31
0.0
  0
LINE
  5
ADE
  8
0
  6
CONTINUOUS
 62
     7
 10
2911.0293664346418
 20
1446.520166599777
 30
0.0
 11
2911.0293664346418
 21
1436.8701665997769
 31
0.0
  0
LINE
  5
ADF
  8
0
  6
CONTINUOUS
 62
     7
 10
2911.0293664346418
 20
1446.520166599777
 30
0.0
 11
2987.7293664346421
 21
1446.520166599777
 31
0.0
  0
LINE
  5
AE0
  8
0
  6
CONTINUOUS
 62
     7
 10
2987.7293664346421
 20
1449.220166599777
 30
0.0
 11
2987.7293664346421
 21
1446.520166599777
 31
0.0
  0
LINE
  5
AE1
  8
0
  6
CONTINUOUS
 62
     7
 10
2911.0293664346418
 20
1449.220166599777
 30
0.0
 11
2987.7293664346421
 21
1449.220166599777
 31
0.0
  0
LINE
  5
AE2
  8
0
  6
CONTINUOUS
 62
     7
 10
2911.0293664346418
 20
1458.8701665997769
 30
0.0
 11
2911.0293664346418
 21
1449.220166599777
 31
0.0
  0
LINE
  5
AE3
  8
0
  6
CONTINUOUS
 62
     7
 10
2911.0293664346418
 20
1458.8701665997769
 30
0.0
 11
2908.7201246805421
 21
1458.8701665997769
 31
0.0
  0
LINE
  5
AE4
  8
0
  6
CONTINUOUS
 62
     7
 10
2908.7201246805421
 20
1462.316258723677
 30
0.0
 11
2908.7201246805421
 21
1458.8701665997769
 31
0.0
  0
LINE
  5
AE5
  8
0
  6
CONTINUOUS
 62
     7
 10
2922.151664343643
 20
1465.4703103697771
 30
0.0
 11
2908.7201246805421
 21
1462.316258723677
 31
0.0
  0
LINE
  5
AE6
  8
0
  6
CONTINUOUS
 62
     7
 10
2922.151664343643
 20
1464.075166599777
 30
0.0
 11
2922.151664343643
 21
1465.4703103697771
 31
0.0
  0
ARC
  5
AE7
  8
0
  6
CONTINUOUS
 62
     7
 10
2922.651664343643
 20
1464.075166599777
 30
0.0
 40
0.5
 50
180.0
 51
0.0
  0
LINE
  5
AE8
  8
0
  6
CONTINUOUS
 62
     7
 10
2923.151664343643
 20
1464.075166599777
 30
0.0
 11
2923.151664343643
 21
1465.705134650877
 31
0.0
  0
LINE
  5
AE9
  8
0
  6
CONTINUOUS
 62
     7
 10
2934.671664343643
 20
1468.4103103697771
 30
0.0
 11
2923.151664343643
 21
1465.705134650877
 31
0.0
  0
LINE
  5
AEA
  8
0
  6
CONTINUOUS
 62
     7
 10
2934.671664343643
 20
1467.0151665997771
 30
0.0
 11
2934.671664343643
 21
1468.4103103697771
 31
0.0
  0
ARC
  5
AEB
  8
0
  6
CONTINUOUS
 62
     7
 10
2935.171664343643
 20
1467.0151665997771
 30
0.0
 40
0.5
 50
180.0
 51
0.0
  0
LINE
  5
AEC
  8
0
  6
CONTINUOUS
 62
     7
 10
2935.6716643436421
 20
1467.0151665997771
 30
0.0
 11
2935.6716643436421
 21
1468.645134650877
 31
0.0
  0
LINE
  5
AED
  8
0
  6
CONTINUOUS
 62
     7
 10
2937.4816643436429
 20
1469.0701665997769
 30
0.0
 11
2935.6716643436421
 21
1468.645134650877
 31
0.0
  0
LINE
  5
AEE
  8
0
  6
CONTINUOUS
 62
     7
 10
2947.191664343643
 20
1469.0701665997769
 30
0.0
 11
2937.4816643436429
 21
1469.0701665997769
 31
0.0
  0
LINE
  5
AEF
  8
0
  6
CONTINUOUS
 62
     7
 10
2947.191664343643
 20
1467.750166599777
 30
0.0
 11
2947.191664343643
 21
1469.0701665997769
 31
0.0
  0
ARC
  5
AF0
  8
0
  6
CONTINUOUS
 62
     7
 10
2947.691664343643
 20
1467.750166599777
 30
0.0
 40
0.5
 50
180.0
 51
0.0
  0
LINE
  5
AF1
  8
0
  6
CONTINUOUS
 62
     7
 10
2948.191664343643
 20
1467.750166599777
 30
0.0
 11
2948.191664343643
 21
1469.0701665997769
 31
0.0
  0
LINE
  5
AF2
  8
0
  6
CONTINUOUS
 62
     7
 10
2959.711664343643
 20
1469.0701665997769
 30
0.0
 11
2948.191664343643
 21
1469.0701665997769
 31
0.0
  0
LINE
  5
AF3
  8
0
  6
CONTINUOUS
 62
     7
 10
2959.711664343643
 20
1467.750166599777
 30
0.0
 11
2959.711664343643
 21
1469.0701665997769
 31
0.0
  0
ARC
  5
AF4
  8
0
  6
CONTINUOUS
 62
     7
 10
2960.211664343642
 20
1467.750166599777
 30
0.0
 40
0.5
 50
180.0
 51
0.0
  0
LINE
  5
AF5
  8
0
  6
CONTINUOUS
 62
     7
 10
2960.711664343643
 20
1467.750166599777
 30
0.0
 11
2960.711664343643
 21
1469.0701665997769
 31
0.0
  0
LINE
  5
AF6
  8
0
  6
CONTINUOUS
 62
     7
 10
2972.2316643436429
 20
1469.0701665997769
 30
0.0
 11
2960.711664343643
 21
1469.0701665997769
 31
0.0
  0
LINE
  5
AF7
  8
0
  6
CONTINUOUS
 62
     7
 10
2972.2316643436429
 20
1467.750166599777
 30
0.0
 11
2972.2316643436429
 21
1469.0701665997769
 31
0.0
  0
ARC
  5
AF8
  8
0
  6
CONTINUOUS
 62
     7
 10
2972.7316643436429
 20
1467.750166599777
 30
0.0
 40
0.5
 50
180.0
 51
0.0
  0
LINE
  5
AF9
  8
0
  6
CONTINUOUS
 62
     7
 10
2973.2316643436429
 20
1467.750166599777
 30
0.0
 11
2973.2316643436429
 21
1469.0701665997769
 31
0.0
  0
LINE
  5
AFA
  8
0
  6
CONTINUOUS
 62
     7
 10
2984.751664343642
 20
1469.0701665997769
 30
0.0
 11
2973.2316643436429
 21
1469.0701665997769
 31
0.0
  0
LINE
  5
AFB
  8
0
  6
CONTINUOUS
 62
     7
 10
2984.751664343642
 20
1467.750166599777
 30
0.0
 11
2984.751664343642
 21
1469.0701665997769
 31
0.0
  0
ARC
  5
AFC
  8
0
  6
CONTINUOUS
 62
     7
 10
2985.2516643436429
 20
1467.750166599777
 30
0.0
 40
0.5
 50
180.0
 51
0.0
  0
LINE
  5
AFD
  8
0
  6
CONTINUOUS
 62
     7
 10
2985.7516643436429
 20
1467.750166599777
 30
0.0
 11
2985.7516643436429
 21
1469.0701665997769
 31
0.0
  0
LINE
  5
AFE
  8
0
  6
CONTINUOUS
 62
     7
 10
2997.2716643436429
 20
1469.0701665997769
 30
0.0
 11
2985.7516643436429
 21
1469.0701665997769
 31
0.0
  0
LINE
  5
AFF
  8
0
  6
CONTINUOUS
 62
     7
 10
2997.2716643436429
 20
1467.750166599777
 30
0.0
 11
2997.2716643436429
 21
1469.0701665997769
 31
0.0
  0
ARC
  5
B00
  8
0
  6
CONTINUOUS
 62
     7
 10
2997.7716643436429
 20
1467.750166599777
 30
0.0
 40
0.4999999999999997
 50
180.0
 51
0.0
  0
LINE
  5
B01
  8
0
  6
CONTINUOUS
 62
     7
 10
2998.2716643436429
 20
1467.750166599777
 30
0.0
 11
2998.2716643436429
 21
1469.0701665997769
 31
0.0
  0
LINE
  5
B02
  8
0
  6
CONTINUOUS
 62
     7
 10
3009.7916643436429
 20
1469.0701665997769
 30
0.0
 11
2998.2716643436429
 21
1469.0701665997769
 31
0.0
  0
LINE
  5
B03
  8
0
  6
CONTINUOUS
 62
     7
 10
3009.7916643436429
 20
1467.750166599777
 30
0.0
 11
3009.7916643436429
 21
1469.0701665997769
 31
0.0
  0
ARC
  5
B04
  8
0
  6
CONTINUOUS
 62
     7
 10
3010.2916643436429
 20
1467.750166599777
 30
0.0
 40
0.5
 50
180.0
 51
0.0
  0
LINE
  5
B05
  8
0
  6
CONTINUOUS
 62
     7
 10
3010.791664343642
 20
1467.750166599777
 30
0.0
 11
3010.791664343642
 21
1469.0701665997769
 31
0.0
  0
LINE
  5
B06
  8
0
  6
CONTINUOUS
 62
     7
 10
3022.311664343642
 20
1469.0701665997769
 30
0.0
 11
3010.791664343642
 21
1469.0701665997769
 31
0.0
  0
LINE
  5
B07
  8
0
  6
CONTINUOUS
 62
     7
 10
3022.311664343642
 20
1467.750166599777
 30
0.0
 11
3022.311664343642
 21
1469.0701665997769
 31
0.0
  0
ARC
  5
B08
  8
0
  6
CONTINUOUS
 62
     7
 10
3022.8116643436429
 20
1467.750166599777
 30
0.0
 40
0.5
 50
180.0
 51
0.0
  0
LINE
  5
B09
  8
0
  6
CONTINUOUS
 62
     7
 10
3023.3116643436429
 20
1467.750166599777
 30
0.0
 11
3023.3116643436429
 21
1469.0701665997769
 31
0.0
  0
LINE
  5
B0A
  8
0
  6
CONTINUOUS
 62
     7
 10
3034.8316643436419
 20
1469.0701665997769
 30
0.0
 11
3023.3116643436429
 21
1469.0701665997769
 31
0.0
  0
LINE
  5
B0B
  8
0
  6
CONTINUOUS
 62
     7
 10
3034.8316643436419
 20
1467.750166599777
 30
0.0
 11
3034.8316643436419
 21
1469.0701665997769
 31
0.0
  0
ARC
  5
B0C
  8
0
  6
CONTINUOUS
 62
     7
 10
3035.3316643436419
 20
1467.750166599777
 30
0.0
 40
0.5
 50
180.0
 51
0.0
  0
LINE
  5
B0D
  8
0
  6
CONTINUOUS
 62
     7
 10
3035.8316643436428
 20
1467.750166599777
 30
0.0
 11
3035.8316643436428
 21
1469.0701665997769
 31
0.0
  0
LINE
  5
B0E
  8
0
  6
CONTINUOUS
 62
     7
 10
3047.3516643436428
 20
1469.0701665997769
 30
0.0
 11
3035.8316643436428
 21
1469.0701665997769
 31
0.0
  0
LINE
  5
B0F
  8
0
  6
CONTINUOUS
 62
     7
 10
3047.3516643436428
 20
1467.750166599777
 30
0.0
 11
3047.3516643436428
 21
1469.0701665997769
 31
0.0
  0
ARC
  5
B10
  8
0
  6
CONTINUOUS
 62
     7
 10
3047.8516643436428
 20
1467.750166599777
 30
0.0
 40
0.5
 50
180.0
 51
0.0
  0
LINE
  5
B11
  8
0
  6
CONTINUOUS
 62
     7
 10
3048.3516643436428
 20
1467.750166599777
 30
0.0
 11
3048.3516643436428
 21
1469.0701665997769
 31
0.0
  0
LINE
  5
B12
  8
0
  6
CONTINUOUS
 62
     7
 10
3059.8716643436419
 20
1469.0701665997769
 30
0.0
 11
3048.3516643436428
 21
1469.0701665997769
 31
0.0
  0
LINE
  5
B13
  8
0
  6
CONTINUOUS
 62
     7
 10
3059.8716643436419
 20
1467.750166599777
 30
0.0
 11
3059.8716643436419
 21
1469.0701665997769
 31
0.0
  0
ARC
  5
B14
  8
0
  6
CONTINUOUS
 62
     7
 10
3060.3716643436428
 20
1467.750166599777
 30
0.0
 40
0.5
 50
180.0
 51
0.0
  0
LINE
  5
B15
  8
0
  6
CONTINUOUS
 62
     7
 10
3060.8716643436419
 20
1467.750166599777
 30
0.0
 11
3060.8716643436419
 21
1469.0701665997769
 31
0.0
  0
LINE
  5
B16
  8
0
  6
CONTINUOUS
 62
     7
 10
3072.3916643436428
 20
1469.0701665997769
 30
0.0
 11
3060.8716643436419
 21
1469.0701665997769
 31
0.0
  0
LINE
  5
B17
  8
0
  6
CONTINUOUS
 62
     7
 10
3072.3916643436428
 20
1467.750166599777
 30
0.0
 11
3072.3916643436428
 21
1469.0701665997769
 31
0.0
  0
ARC
  5
B18
  8
0
  6
CONTINUOUS
 62
     7
 10
3072.8916643436428
 20
1467.750166599777
 30
0.0
 40
0.5
 50
180.0
 51
0.0
  0
LINE
  5
B19
  8
0
  6
CONTINUOUS
 62
     7
 10
3073.3916643436419
 20
1467.750166599777
 30
0.0
 11
3073.3916643436419
 21
1469.0701665997769
 31
0.0
  0
LINE
  5
B1A
  8
0
  6
CONTINUOUS
 62
     7
 10
3081.0216643436429
 20
1469.0701665997769
 30
0.0
 11
3073.3916643436419
 21
1469.0701665997769
 31
0.0
  0
LINE
  5
B1B
  8
0
  6
CONTINUOUS
 62
     7
 10
3081.0216643436429
 20
1469.0701665997769
 30
0.0
 11
3081.0216643436429
 21
1458.8701665997769
 31
0.0
  0
LINE
  5
B1C
  8
0
  6
CONTINUOUS
 62
     7
 10
3078.2216643436418
 20
1458.8701665997769
 30
0.0
 11
3081.0216643436429
 21
1458.8701665997769
 31
0.0
  0
LINE
  5
B1D
  8
0
  6
CONTINUOUS
 62
     7
 10
3078.2216643436418
 20
1436.8701665997769
 30
0.0
 11
3078.2216643436418
 21
1458.8701665997769
 31
0.0
  0
LINE
  5
B1E
  8
0
  6
CONTINUOUS
 62
     7
 10
3078.2216643436418
 20
1436.8701665997769
 30
0.0
 11
3081.0216643436429
 21
1436.8701665997769
 31
0.0
  0
LINE
  5
B1F
  8
0
  6
CONTINUOUS
 62
     7
 10
3081.0216643436429
 20
1436.8701665997769
 30
0.0
 11
3081.0216643436429
 21
1426.6701665997771
 31
0.0
  0
LINE
  5
B20
  8
0
  6
CONTINUOUS
 62
     7
 10
3081.0216643436429
 20
1426.6701665997771
 30
0.0
 11
3067.3668556587422
 21
1426.6701665997771
 31
0.0
  0
LINE
  5
B21
  8
0
  6
CONTINUOUS
 62
     7
 10
3067.3668556587422
 20
1427.990166599777
 30
0.0
 11
3067.3668556587422
 21
1426.6701665997771
 31
0.0
  0
ARC
  5
B22
  8
0
  6
CONTINUOUS
 62
     7
 10
3066.631664343643
 20
1427.990166599777
 30
0.0
 40
0.7351913151207015
 50
0.0
 51
180.0
  0
LINE
  5
B23
  8
0
  6
CONTINUOUS
 62
     7
 10
3065.8964730285429
 20
1427.990166599777
 30
0.0
 11
3065.8964730285429
 21
1426.6701665997771
 31
0.0
  0
LINE
  5
B24
  8
0
  6
CONTINUOUS
 62
     7
 10
3065.8964730285429
 20
1426.6701665997771
 30
0.0
 11
3054.8468556587418
 21
1426.6701665997771
 31
0.0
  0
LINE
  5
B25
  8
0
  6
CONTINUOUS
 62
     7
 10
3054.8468556587418
 20
1427.990166599777
 30
0.0
 11
3054.8468556587418
 21
1426.6701665997771
 31
0.0
  0
ARC
  5
B26
  8
0
  6
CONTINUOUS
 62
     7
 10
3054.111664343643
 20
1427.990166599777
 30
0.0
 40
0.7351913151207015
 50
0.0
 51
180.0
  0
LINE
  5
B27
  8
0
  6
CONTINUOUS
 62
     7
 10
3053.3764730285429
 20
1427.990166599777
 30
0.0
 11
3053.3764730285429
 21
1426.6701665997771
 31
0.0
  0
LINE
  5
B28
  8
0
  6
CONTINUOUS
 62
     7
 10
3053.3764730285429
 20
1426.6701665997771
 30
0.0
 11
3042.3268556587432
 21
1426.6701665997771
 31
0.0
  0
LINE
  5
B29
  8
0
  6
CONTINUOUS
 62
     7
 10
3042.3268556587432
 20
1427.990166599777
 30
0.0
 11
3042.3268556587432
 21
1426.6701665997771
 31
0.0
  0
ARC
  5
B2A
  8
0
  6
CONTINUOUS
 62
     7
 10
3041.5916643436431
 20
1427.990166599777
 30
0.0
 40
0.7351913151207015
 50
0.0
 51
180.0
  0
LINE
  5
B2B
  8
0
  6
CONTINUOUS
 62
     7
 10
3040.856473028543
 20
1427.990166599777
 30
0.0
 11
3040.856473028543
 21
1426.6701665997771
 31
0.0
  0
LINE
  5
B2C
  8
0
  6
CONTINUOUS
 62
     7
 10
3040.856473028543
 20
1426.6701665997771
 30
0.0
 11
3029.8068556587432
 21
1426.6701665997771
 31
0.0
  0
LINE
  5
B2D
  8
0
  6
CONTINUOUS
 62
     7
 10
3029.8068556587432
 20
1427.990166599777
 30
0.0
 11
3029.8068556587432
 21
1426.6701665997771
 31
0.0
  0
ARC
  5
B2E
  8
0
  6
CONTINUOUS
 62
     7
 10
3029.0716643436431
 20
1427.990166599777
 30
0.0
 40
0.7351913151206944
 50
0.0
 51
180.0
  0
LINE
  5
B2F
  8
0
  6
CONTINUOUS
 62
     7
 10
3028.336473028543
 20
1427.990166599777
 30
0.0
 11
3028.336473028543
 21
1426.6701665997771
 31
0.0
  0
LINE
  5
B30
  8
0
  6
CONTINUOUS
 62
     7
 10
3028.336473028543
 20
1426.6701665997771
 30
0.0
 11
3017.2868556587418
 21
1426.6701665997771
 31
0.0
  0
LINE
  5
B31
  8
0
  6
CONTINUOUS
 62
     7
 10
3017.2868556587418
 20
1427.990166599777
 30
0.0
 11
3017.2868556587418
 21
1426.6701665997771
 31
0.0
  0
ARC
  5
B32
  8
0
  6
CONTINUOUS
 62
     7
 10
3016.5516643436422
 20
1427.990166599777
 30
0.0
 40
0.7351913151206979
 50
0.0
 51
180.0
  0
LINE
  5
B33
  8
0
  6
CONTINUOUS
 62
     7
 10
3015.816473028543
 20
1427.990166599777
 30
0.0
 11
3015.816473028543
 21
1426.6701665997771
 31
0.0
  0
LINE
  5
B34
  8
0
  6
CONTINUOUS
 62
     7
 10
3015.816473028543
 20
1426.6701665997771
 30
0.0
 11
3004.7668556587432
 21
1426.6701665997771
 31
0.0
  0
LINE
  5
B35
  8
0
  6
CONTINUOUS
 62
     7
 10
3004.7668556587432
 20
1427.990166599777
 30
0.0
 11
3004.7668556587432
 21
1426.6701665997771
 31
0.0
  0
ARC
  5
B36
  8
0
  6
CONTINUOUS
 62
     7
 10
3004.0316643436431
 20
1427.990166599777
 30
0.0
 40
0.7351913151206979
 50
0.0
 51
180.0
  0
LINE
  5
B37
  8
0
  6
CONTINUOUS
 62
     7
 10
3003.296473028543
 20
1427.990166599777
 30
0.0
 11
3003.296473028543
 21
1426.6701665997771
 31
0.0
  0
LINE
  5
B38
  8
0
  6
CONTINUOUS
 62
     7
 10
3003.296473028543
 20
1426.6701665997771
 30
0.0
 11
2992.2468556587428
 21
1426.6701665997771
 31
0.0
  0
LINE
  5
B39
  8
0
  6
CONTINUOUS
 62
     7
 10
2992.2468556587428
 20
1427.990166599777
 30
0.0
 11
2992.2468556587428
 21
1426.6701665997771
 31
0.0
  0
ARC
  5
B3A
  8
0
  6
CONTINUOUS
 62
     7
 10
2991.5116643436422
 20
1427.990166599777
 30
0.0
 40
0.7351913151206971
 50
0.0
 51
180.0
  0
LINE
  5
B3B
  8
0
  6
CONTINUOUS
 62
     7
 10
2990.776473028543
 20
1427.990166599777
 30
0.0
 11
2990.776473028543
 21
1426.6701665997771
 31
0.0
  0
LINE
  5
B3C
  8
0
  6
CONTINUOUS
 62
     7
 10
2990.776473028543
 20
1426.6701665997771
 30
0.0
 11
2979.7268556587428
 21
1426.6701665997771
 31
0.0
  0
LINE
  5
B3D
  8
0
  6
CONTINUOUS
 62
     7
 10
2979.7268556587428
 20
1427.990166599777
 30
0.0
 11
2979.7268556587428
 21
1426.6701665997771
 31
0.0
  0
ARC
  5
B3E
  8
0
  6
CONTINUOUS
 62
     7
 10
2978.9916643436418
 20
1427.990166599777
 30
0.0
 40
0.7351913151206962
 50
0.0
 51
180.0
  0
LINE
  5
B3F
  8
0
  6
CONTINUOUS
 62
     7
 10
2978.2564730285421
 20
1427.990166599777
 30
0.0
 11
2978.2564730285421
 21
1426.6701665997771
 31
0.0
  0
LINE
  5
B40
  8
0
  6
CONTINUOUS
 62
     7
 10
2978.2564730285421
 20
1426.6701665997771
 30
0.0
 11
2967.2068556587419
 21
1426.6701665997771
 31
0.0
  0
LINE
  5
B41
  8
0
  6
CONTINUOUS
 62
     7
 10
2967.2068556587419
 20
1427.990166599777
 30
0.0
 11
2967.2068556587419
 21
1426.6701665997771
 31
0.0
  0
ARC
  5
B42
  8
0
  6
CONTINUOUS
 62
     7
 10
2966.4716643436432
 20
1427.990166599777
 30
0.0
 40
0.7351913151206979
 50
0.0
 51
180.0
  0
LINE
  5
B43
  8
0
  6
CONTINUOUS
 62
     7
 10
2965.7364730285431
 20
1427.990166599777
 30
0.0
 11
2965.7364730285431
 21
1426.6701665997771
 31
0.0
  0
LINE
  5
B44
  8
0
  6
CONTINUOUS
 62
     7
 10
2965.7364730285431
 20
1426.6701665997771
 30
0.0
 11
2954.6868556587428
 21
1426.6701665997771
 31
0.0
  0
LINE
  5
B45
  8
0
  6
CONTINUOUS
 62
     7
 10
2954.6868556587428
 20
1427.990166599777
 30
0.0
 11
2954.6868556587428
 21
1426.6701665997771
 31
0.0
  0
ARC
  5
B46
  8
0
  6
CONTINUOUS
 62
     7
 10
2953.9516643436432
 20
1427.990166599777
 30
0.0
 40
0.7351913151206944
 50
0.0
 51
180.0
  0
LINE
  5
B47
  8
0
  6
CONTINUOUS
 62
     7
 10
2953.2164730285422
 20
1427.990166599777
 30
0.0
 11
2953.2164730285422
 21
1426.6701665997771
 31
0.0
  0
LINE
  5
B48
  8
0
  6
CONTINUOUS
 62
     7
 10
2953.2164730285422
 20
1426.6701665997771
 30
0.0
 11
2942.166855658742
 21
1426.6701665997771
 31
0.0
  0
LINE
  5
B49
  8
0
  6
CONTINUOUS
 62
     7
 10
2942.166855658742
 20
1427.990166599777
 30
0.0
 11
2942.166855658742
 21
1426.6701665997771
 31
0.0
  0
ARC
  5
B4A
  8
0
  6
CONTINUOUS
 62
     7
 10
2941.4316643436418
 20
1427.990166599777
 30
0.0
 40
0.7351913151206944
 50
0.0
 51
180.0
  0
LINE
  5
B4B
  8
0
  6
CONTINUOUS
 62
     7
 10
2940.6964730285431
 20
1427.990166599777
 30
0.0
 11
2940.6964730285431
 21
1426.6701665997771
 31
0.0
  0
LINE
  5
B4C
  8
0
  6
CONTINUOUS
 62
     7
 10
2940.6964730285431
 20
1426.6701665997771
 30
0.0
 11
2937.4816643436429
 21
1426.6701665997771
 31
0.0
  0
LINE
  5
B4D
  8
0
  6
CONTINUOUS
 62
     7
 10
2937.4816643436429
 20
1426.6701665997771
 30
0.0
 11
2929.646855658742
 21
1428.5099699171769
 31
0.0
  0
LINE
  5
B4E
  8
0
  6
CONTINUOUS
 62
     7
 10
2929.646855658742
 20
1430.1951665997769
 30
0.0
 11
2929.646855658742
 21
1428.5099699171769
 31
0.0
  0
ARC
  5
B4F
  8
0
  6
CONTINUOUS
 62
     7
 10
2928.9116643436419
 20
1430.1951665997769
 30
0.0
 40
0.7351913151207015
 50
0.0
 51
180.0
  0
LINE
  5
B50
  8
0
  6
CONTINUOUS
 62
     7
 10
2928.1764730285431
 20
1430.1951665997769
 30
0.0
 11
2928.1764730285431
 21
1428.8552514613771
 31
0.0
  0
LINE
  5
B51
  8
0
  6
CONTINUOUS
 62
     7
 10
2928.1764730285431
 20
1428.8552514613771
 30
0.0
 11
2917.1268556587429
 21
1431.449969917177
 31
0.0
  0
LINE
  5
B52
  8
0
  6
CONTINUOUS
 62
     7
 10
2917.1268556587429
 20
1433.135166599777
 30
0.0
 11
2917.1268556587429
 21
1431.449969917177
 31
0.0
  0
ARC
  5
C4F
  8
0
  6
CONTINUOUS
 62
     7
 10
3246.6627768795511
 20
1484.057723001398
 30
0.0
 40
0.5
 50
0.0
 51
180.0
  0
LINE
  5
C50
  8
0
  6
CONTINUOUS
 62
     7
 10
3247.1627768795511
 20
1484.057723001398
 30
0.0
 11
3247.1627768795511
 21
1482.6625792313989
 31
0.0
  0
LINE
  5
C51
  8
0
  6
CONTINUOUS
 62
     7
 10
3247.1627768795511
 20
1482.6625792313989
 30
0.0
 11
3257.464316542651
 21
1485.0816308774979
 31
0.0
  0
LINE
  5
C52
  8
0
  6
CONTINUOUS
 62
     7
 10
3257.464316542651
 20
1485.0816308774979
 30
0.0
 11
3257.464316542651
 21
1488.527723001398
 31
0.0
  0
LINE
  5
C53
  8
0
  6
CONTINUOUS
 62
     7
 10
3254.6643165426508
 20
1488.527723001398
 30
0.0
 11
3257.464316542651
 21
1488.527723001398
 31
0.0
  0
LINE
  5
C54
  8
0
  6
CONTINUOUS
 62
     7
 10
3254.6643165426508
 20
1510.527723001398
 30
0.0
 11
3254.6643165426508
 21
1488.527723001398
 31
0.0
  0
LINE
  5
C55
  8
0
  6
CONTINUOUS
 62
     7
 10
3254.6643165426508
 20
1510.527723001398
 30
0.0
 11
3257.464316542651
 21
1510.527723001398
 31
0.0
  0
LINE
  5
C56
  8
0
  6
CONTINUOUS
 62
     7
 10
3257.464316542651
 20
1513.9738151252991
 30
0.0
 11
3257.464316542651
 21
1510.527723001398
 31
0.0
  0
LINE
  5
C57
  8
0
  6
CONTINUOUS
 62
     7
 10
3253.4227768795508
 20
1514.922866771398
 30
0.0
 11
3257.464316542651
 21
1513.9738151252991
 31
0.0
  0
LINE
  5
C58
  8
0
  6
CONTINUOUS
 62
     7
 10
3253.4227768795508
 20
1513.527723001398
 30
0.0
 11
3253.4227768795508
 21
1514.922866771398
 31
0.0
  0
ARC
  5
C59
  8
0
  6
CONTINUOUS
 62
     7
 10
3252.9227768795508
 20
1513.527723001398
 30
0.0
 40
0.5
 50
180.0
 51
0.0
  0
LINE
  5
C5A
  8
0
  6
CONTINUOUS
 62
     7
 10
3252.4227768795508
 20
1513.527723001398
 30
0.0
 11
3252.4227768795508
 21
1515.1576910524991
 31
0.0
  0
LINE
  5
C5B
  8
0
  6
CONTINUOUS
 62
     7
 10
3240.9027768795509
 20
1517.8628667713981
 30
0.0
 11
3252.4227768795508
 21
1515.1576910524991
 31
0.0
  0
LINE
  5
C5C
  8
0
  6
CONTINUOUS
 62
     7
 10
3240.9027768795509
 20
1516.4677230013981
 30
0.0
 11
3240.9027768795509
 21
1517.8628667713981
 31
0.0
  0
ARC
  5
C5D
  8
0
  6
CONTINUOUS
 62
     7
 10
3240.4027768795509
 20
1516.4677230013981
 30
0.0
 40
0.5
 50
180.0
 51
0.0
  0
LINE
  5
C5E
  8
0
  6
CONTINUOUS
 62
     7
 10
3239.9027768795509
 20
1516.4677230013981
 30
0.0
 11
3239.9027768795509
 21
1518.097691052498
 31
0.0
  0
LINE
  5
C5F
  8
0
  6
CONTINUOUS
 62
     7
 10
3228.702776879551
 20
1520.7277230013981
 30
0.0
 11
3239.9027768795509
 21
1518.097691052498
 31
0.0
  0
LINE
  5
C60
  8
0
  6
CONTINUOUS
 62
     7
 10
3228.3827768795509
 20
1520.7277230013981
 30
0.0
 11
3228.702776879551
 21
1520.7277230013981
 31
0.0
  0
LINE
  5
C61
  8
0
  6
CONTINUOUS
 62
     7
 10
3228.3827768795509
 20
1519.4077230013979
 30
0.0
 11
3228.3827768795509
 21
1520.7277230013981
 31
0.0
  0
ARC
  5
C62
  8
0
  6
CONTINUOUS
 62
     7
 10
3227.8827768795509
 20
1519.4077230013979
 30
0.0
 40
0.5
 50
180.0
 51
0.0
  0
LINE
  5
C63
  8
0
  6
CONTINUOUS
 62
     7
 10
3227.3827768795509
 20
1519.4077230013979
 30
0.0
 11
3227.3827768795509
 21
1520.7277230013981
 31
0.0
  0
LINE
  5
C64
  8
0
  6
CONTINUOUS
 62
     7
 10
3215.86277687955
 20
1520.7277230013981
 30
0.0
 11
3227.3827768795509
 21
1520.7277230013981
 31
0.0
  0
LINE
  5
C65
  8
0
  6
CONTINUOUS
 62
     7
 10
3215.86277687955
 20
1519.4077230013979
 30
0.0
 11
3215.86277687955
 21
1520.7277230013981
 31
0.0
  0
ARC
  5
C66
  8
0
  6
CONTINUOUS
 62
     7
 10
3215.36277687955
 20
1519.4077230013979
 30
0.0
 40
0.5
 50
180.0
 51
0.0
  0
LINE
  5
C67
  8
0
  6
CONTINUOUS
 62
     7
 10
3214.8627768795509
 20
1519.4077230013979
 30
0.0
 11
3214.8627768795509
 21
1520.7277230013981
 31
0.0
  0
LINE
  5
C68
  8
0
  6
CONTINUOUS
 62
     7
 10
3203.3427768795509
 20
1520.7277230013981
 30
0.0
 11
3214.8627768795509
 21
1520.7277230013981
 31
0.0
  0
LINE
  5
C69
  8
0
  6
CONTINUOUS
 62
     7
 10
3203.3427768795509
 20
1519.4077230013979
 30
0.0
 11
3203.3427768795509
 21
1520.7277230013981
 31
0.0
  0
ARC
  5
C6A
  8
0
  6
CONTINUOUS
 62
     7
 10
3202.8427768795509
 20
1519.4077230013979
 30
0.0
 40
0.5
 50
180.0
 51
0.0
  0
LINE
  5
C6B
  8
0
  6
CONTINUOUS
 62
     7
 10
3202.3427768795509
 20
1519.4077230013979
 30
0.0
 11
3202.3427768795509
 21
1520.7277230013981
 31
0.0
  0
LINE
  5
C6C
  8
0
  6
CONTINUOUS
 62
     7
 10
3190.8227768795509
 20
1520.7277230013981
 30
0.0
 11
3202.3427768795509
 21
1520.7277230013981
 31
0.0
  0
LINE
  5
C6D
  8
0
  6
CONTINUOUS
 62
     7
 10
3190.8227768795509
 20
1519.4077230013979
 30
0.0
 11
3190.8227768795509
 21
1520.7277230013981
 31
0.0
  0
ARC
  5
C6E
  8
0
  6
CONTINUOUS
 62
     7
 10
3190.3227768795509
 20
1519.4077230013979
 30
0.0
 40
0.5000000000000142
 50
180.0
 51
0.0
  0
LINE
  5
C6F
  8
0
  6
CONTINUOUS
 62
     7
 10
3189.82277687955
 20
1519.4077230013979
 30
0.0
 11
3189.82277687955
 21
1520.7277230013981
 31
0.0
  0
LINE
  5
C70
  8
0
  6
CONTINUOUS
 62
     7
 10
3178.3027768795509
 20
1520.7277230013981
 30
0.0
 11
3189.82277687955
 21
1520.7277230013981
 31
0.0
  0
LINE
  5
C71
  8
0
  6
CONTINUOUS
 62
     7
 10
3178.3027768795509
 20
1519.4077230013979
 30
0.0
 11
3178.3027768795509
 21
1520.7277230013981
 31
0.0
  0
ARC
  5
C72
  8
0
  6
CONTINUOUS
 62
     7
 10
3177.8027768795509
 20
1519.4077230013979
 30
0.0
 40
0.5
 50
180.0
 51
0.0
  0
LINE
  5
C73
  8
0
  6
CONTINUOUS
 62
     7
 10
3177.30277687955
 20
1519.4077230013979
 30
0.0
 11
3177.30277687955
 21
1520.7277230013981
 31
0.0
  0
LINE
  5
C74
  8
0
  6
CONTINUOUS
 62
     7
 10
3165.782776879551
 20
1520.7277230013981
 30
0.0
 11
3177.30277687955
 21
1520.7277230013981
 31
0.0
  0
LINE
  5
C75
  8
0
  6
CONTINUOUS
 62
     7
 10
3165.782776879551
 20
1519.4077230013979
 30
0.0
 11
3165.782776879551
 21
1520.7277230013981
 31
0.0
  0
ARC
  5
C76
  8
0
  6
CONTINUOUS
 62
     7
 10
3165.282776879551
 20
1519.4077230013979
 30
0.0
 40
0.5000000000000142
 50
180.0
 51
0.0
  0
LINE
  5
C77
  8
0
  6
CONTINUOUS
 62
     7
 10
3164.782776879551
 20
1519.4077230013979
 30
0.0
 11
3164.782776879551
 21
1520.7277230013981
 31
0.0
  0
LINE
  5
C78
  8
0
  6
CONTINUOUS
 62
     7
 10
3153.262776879551
 20
1520.7277230013981
 30
0.0
 11
3164.782776879551
 21
1520.7277230013981
 31
0.0
  0
LINE
  5
C79
  8
0
  6
CONTINUOUS
 62
     7
 10
3153.262776879551
 20
1519.4077230013979
 30
0.0
 11
3153.262776879551
 21
1520.7277230013981
 31
0.0
  0
ARC
  5
C7A
  8
0
  6
CONTINUOUS
 62
     7
 10
3152.7627768795501
 20
1519.4077230013979
 30
0.0
 40
0.5
 50
180.0
 51
0.0
  0
LINE
  5
C7B
  8
0
  6
CONTINUOUS
 62
     7
 10
3152.262776879551
 20
1519.4077230013979
 30
0.0
 11
3152.262776879551
 21
1520.7277230013981
 31
0.0
  0
LINE
  5
C7C
  8
0
  6
CONTINUOUS
 62
     7
 10
3140.742776879551
 20
1520.7277230013981
 30
0.0
 11
3152.262776879551
 21
1520.7277230013981
 31
0.0
  0
LINE
  5
C7D
  8
0
  6
CONTINUOUS
 62
     7
 10
3140.742776879551
 20
1519.4077230013979
 30
0.0
 11
3140.742776879551
 21
1520.7277230013981
 31
0.0
  0
ARC
  5
C7E
  8
0
  6
CONTINUOUS
 62
     7
 10
3140.242776879551
 20
1519.4077230013979
 30
0.0
 40
0.5
 50
180.0
 51
0.0
  0
LINE
  5
C7F
  8
0
  6
CONTINUOUS
 62
     7
 10
3139.742776879551
 20
1519.4077230013979
 30
0.0
 11
3139.742776879551
 21
1520.7277230013981
 31
0.0
  0
LINE
  5
C80
  8
0
  6
CONTINUOUS
 62
     7
 10
3128.222776879551
 20
1520.7277230013981
 30
0.0
 11
3139.742776879551
 21
1520.7277230013981
 31
0.0
  0
LINE
  5
C81
  8
0
  6
CONTINUOUS
 62
     7
 10
3128.222776879551
 20
1519.4077230013979
 30
0.0
 11
3128.222776879551
 21
1520.7277230013981
 31
0.0
  0
ARC
  5
C82
  8
0
  6
CONTINUOUS
 62
     7
 10
3127.722776879551
 20
1519.4077230013979
 30
0.0
 40
0.5
 50
180.0
 51
0.0
  0
LINE
  5
C83
  8
0
  6
CONTINUOUS
 62
     7
 10
3127.222776879551
 20
1519.4077230013979
 30
0.0
 11
3127.222776879551
 21
1520.7277230013981
 31
0.0
  0
LINE
  5
C84
  8
0
  6
CONTINUOUS
 62
     7
 10
3115.702776879551
 20
1520.7277230013981
 30
0.0
 11
3127.222776879551
 21
1520.7277230013981
 31
0.0
  0
LINE
  5
C85
  8
0
  6
CONTINUOUS
 62
     7
 10
3115.702776879551
 20
1519.4077230013979
 30
0.0
 11
3115.702776879551
 21
1520.7277230013981
 31
0.0
  0
ARC
  5
C86
  8
0
  6
CONTINUOUS
 62
     7
 10
3115.202776879551
 20
1519.4077230013979
 30
0.0
 40
0.5000000000000071
 50
180.0
 51
0.0
  0
LINE
  5
C87
  8
0
  6
CONTINUOUS
 62
     7
 10
3114.702776879551
 20
1519.4077230013979
 30
0.0
 11
3114.702776879551
 21
1520.7277230013981
 31
0.0
  0
LINE
  5
C88
  8
0
  6
CONTINUOUS
 62
     7
 10
3103.1827768795511
 20
1520.7277230013981
 30
0.0
 11
3114.702776879551
 21
1520.7277230013981
 31
0.0
  0
LINE
  5
C89
  8
0
  6
CONTINUOUS
 62
     7
 10
3103.1827768795511
 20
1519.4077230013979
 30
0.0
 11
3103.1827768795511
 21
1520.7277230013981
 31
0.0
  0
ARC
  5
C8A
  8
0
  6
CONTINUOUS
 62
     7
 10
3102.6827768795511
 20
1519.4077230013979
 30
0.0
 40
0.5000000000000036
 50
180.0
 51
0.0
  0
LINE
  5
C8B
  8
0
  6
CONTINUOUS
 62
     7
 10
3102.1827768795511
 20
1519.4077230013979
 30
0.0
 11
3102.1827768795511
 21
1520.7277230013981
 31
0.0
  0
LINE
  5
C8C
  8
0
  6
CONTINUOUS
 62
     7
 10
3095.6205786348501
 20
1520.7277230013981
 30
0.0
 11
3102.1827768795511
 21
1520.7277230013981
 31
0.0
  0
ARC
  5
C8D
  8
0
  6
CONTINUOUS
 62
     7
 10
3095.6205786348501
 20
1518.7277230013981
 30
0.0
 40
2.0
 50
90.0
 51
172.8979856777994
  0
ARC
  5
C8E
  8
0
  6
CONTINUOUS
 62
     7
 10
3090.1627768795511
 20
1519.4077230013979
 30
0.0
 40
3.5
 50
270.0
 51
352.8979856777994
  0
LINE
  5
C8F
  8
0
  6
CONTINUOUS
 62
     7
 10
3090.1627768795511
 20
1515.9077230013979
 30
0.0
 11
3085.1627768795511
 21
1515.9077230013979
 31
0.0
  0
LINE
  5
C90
  8
0
  6
CONTINUOUS
 62
     7
 10
3085.1627768795511
 20
1510.527723001398
 30
0.0
 11
3085.1627768795511
 21
1515.9077230013979
 31
0.0
  0
LINE
  5
C91
  8
0
  6
CONTINUOUS
 62
     7
 10
3087.9627768795508
 20
1510.527723001398
 30
0.0
 11
3085.1627768795511
 21
1510.527723001398
 31
0.0
  0
LINE
  5
C92
  8
0
  6
CONTINUOUS
 62
     7
 10
3087.9627768795508
 20
1510.527723001398
 30
0.0
 11
3087.9627768795508
 21
1500.8777230013991
 31
0.0
  0
LINE
  5
C93
  8
0
  6
CONTINUOUS
 62
     7
 10
3087.9627768795508
 20
1500.8777230013991
 30
0.0
 11
3177.9627768795508
 21
1500.8777230013991
 31
0.0
  0
LINE
  5
C94
  8
0
  6
CONTINUOUS
 62
     7
 10
3177.9627768795508
 20
1500.8777230013991
 30
0.0
 11
3177.9627768795508
 21
1498.1777230013979
 31
0.0
  0
LINE
  5
C95
  8
0
  6
CONTINUOUS
 62
     7
 10
3087.9627768795508
 20
1498.1777230013979
 30
0.0
 11
3177.9627768795508
 21
1498.1777230013979
 31
0.0
  0
LINE
  5
C96
  8
0
  6
CONTINUOUS
 62
     7
 10
3087.9627768795508
 20
1498.1777230013979
 30
0.0
 11
3087.9627768795508
 21
1488.527723001398
 31
0.0
  0
LINE
  5
C97
  8
0
  6
CONTINUOUS
 62
     7
 10
3087.9627768795508
 20
1488.527723001398
 30
0.0
 11
3085.1627768795511
 21
1488.527723001398
 31
0.0
  0
LINE
  5
C98
  8
0
  6
CONTINUOUS
 62
     7
 10
3085.1627768795511
 20
1478.327723001398
 30
0.0
 11
3085.1627768795511
 21
1488.527723001398
 31
0.0
  0
LINE
  5
C99
  8
0
  6
CONTINUOUS
 62
     7
 10
3085.1627768795511
 20
1478.327723001398
 30
0.0
 11
3095.9227768795508
 21
1478.327723001398
 31
0.0
  0
LINE
  5
C9A
  8
0
  6
CONTINUOUS
 62
     7
 10
3095.9227768795508
 20
1479.6477230013979
 30
0.0
 11
3095.9227768795508
 21
1478.327723001398
 31
0.0
  0
ARC
  5
C9B
  8
0
  6
CONTINUOUS
 62
     7
 10
3096.4227768795508
 20
1479.6477230013979
 30
0.0
 40
0.5000000000000018
 50
0.0
 51
180.0
  0
LINE
  5
C9C
  8
0
  6
CONTINUOUS
 62
     7
 10
3096.9227768795508
 20
1479.6477230013979
 30
0.0
 11
3096.9227768795508
 21
1478.327723001398
 31
0.0
  0
LINE
  5
C9D
  8
0
  6
CONTINUOUS
 62
     7
 10
3096.9227768795508
 20
1478.327723001398
 30
0.0
 11
3108.4427768795508
 21
1478.327723001398
 31
0.0
  0
LINE
  5
C9E
  8
0
  6
CONTINUOUS
 62
     7
 10
3108.4427768795508
 20
1479.6477230013979
 30
0.0
 11
3108.4427768795508
 21
1478.327723001398
 31
0.0
  0
ARC
  5
C9F
  8
0
  6
CONTINUOUS
 62
     7
 10
3108.9427768795508
 20
1479.6477230013979
 30
0.0
 40
0.5000000000000036
 50
0.0
 51
180.0
  0
LINE
  5
CA0
  8
0
  6
CONTINUOUS
 62
     7
 10
3109.4427768795508
 20
1479.6477230013979
 30
0.0
 11
3109.4427768795508
 21
1478.327723001398
 31
0.0
  0
LINE
  5
CA1
  8
0
  6
CONTINUOUS
 62
     7
 10
3109.4427768795508
 20
1478.327723001398
 30
0.0
 11
3120.9627768795508
 21
1478.327723001398
 31
0.0
  0
LINE
  5
CA2
  8
0
  6
CONTINUOUS
 62
     7
 10
3120.9627768795508
 20
1479.6477230013979
 30
0.0
 11
3120.9627768795508
 21
1478.327723001398
 31
0.0
  0
ARC
  5
CA3
  8
0
  6
CONTINUOUS
 62
     7
 10
3121.4627768795508
 20
1479.6477230013979
 30
0.0
 40
0.5000000000000071
 50
0.0
 51
180.0
  0
LINE
  5
CA4
  8
0
  6
CONTINUOUS
 62
     7
 10
3121.9627768795508
 20
1479.6477230013979
 30
0.0
 11
3121.9627768795508
 21
1478.327723001398
 31
0.0
  0
LINE
  5
CA5
  8
0
  6
CONTINUOUS
 62
     7
 10
3121.9627768795508
 20
1478.327723001398
 30
0.0
 11
3133.4827768795508
 21
1478.327723001398
 31
0.0
  0
LINE
  5
CA6
  8
0
  6
CONTINUOUS
 62
     7
 10
3133.4827768795508
 20
1479.6477230013979
 30
0.0
 11
3133.4827768795508
 21
1478.327723001398
 31
0.0
  0
ARC
  5
CA7
  8
0
  6
CONTINUOUS
 62
     7
 10
3133.9827768795508
 20
1479.6477230013979
 30
0.0
 40
0.5
 50
0.0
 51
180.0
  0
LINE
  5
CA8
  8
0
  6
CONTINUOUS
 62
     7
 10
3134.4827768795508
 20
1479.6477230013979
 30
0.0
 11
3134.4827768795508
 21
1478.327723001398
 31
0.0
  0
LINE
  5
CA9
  8
0
  6
CONTINUOUS
 62
     7
 10
3134.4827768795508
 20
1478.327723001398
 30
0.0
 11
3146.0027768795512
 21
1478.327723001398
 31
0.0
  0
LINE
  5
CAA
  8
0
  6
CONTINUOUS
 62
     7
 10
3146.0027768795512
 20
1479.6477230013979
 30
0.0
 11
3146.0027768795512
 21
1478.327723001398
 31
0.0
  0
ARC
  5
CAB
  8
0
  6
CONTINUOUS
 62
     7
 10
3146.5027768795512
 20
1479.6477230013979
 30
0.0
 40
0.5
 50
0.0
 51
180.0
  0
LINE
  5
CAC
  8
0
  6
CONTINUOUS
 62
     7
 10
3147.0027768795512
 20
1479.6477230013979
 30
0.0
 11
3147.0027768795512
 21
1478.327723001398
 31
0.0
  0
LINE
  5
CAD
  8
0
  6
CONTINUOUS
 62
     7
 10
3147.0027768795512
 20
1478.327723001398
 30
0.0
 11
3158.5227768795512
 21
1478.327723001398
 31
0.0
  0
LINE
  5
CAE
  8
0
  6
CONTINUOUS
 62
     7
 10
3158.5227768795512
 20
1479.6477230013979
 30
0.0
 11
3158.5227768795512
 21
1478.327723001398
 31
0.0
  0
ARC
  5
CAF
  8
0
  6
CONTINUOUS
 62
     7
 10
3159.0227768795512
 20
1479.6477230013979
 30
0.0
 40
0.5
 50
0.0
 51
180.0
  0
LINE
  5
CB0
  8
0
  6
CONTINUOUS
 62
     7
 10
3159.5227768795512
 20
1479.6477230013979
 30
0.0
 11
3159.5227768795512
 21
1478.327723001398
 31
0.0
  0
LINE
  5
CB1
  8
0
  6
CONTINUOUS
 62
     7
 10
3159.5227768795512
 20
1478.327723001398
 30
0.0
 11
3171.0427768795512
 21
1478.327723001398
 31
0.0
  0
LINE
  5
CB2
  8
0
  6
CONTINUOUS
 62
     7
 10
3171.0427768795512
 20
1479.6477230013979
 30
0.0
 11
3171.0427768795512
 21
1478.327723001398
 31
0.0
  0
ARC
  5
CB3
  8
0
  6
CONTINUOUS
 62
     7
 10
3171.5427768795512
 20
1479.6477230013979
 30
0.0
 40
0.5
 50
0.0
 51
180.0
  0
LINE
  5
CB4
  8
0
  6
CONTINUOUS
 62
     7
 10
3172.0427768795512
 20
1479.6477230013979
 30
0.0
 11
3172.0427768795512
 21
1478.327723001398
 31
0.0
  0
LINE
  5
CB5
  8
0
  6
CONTINUOUS
 62
     7
 10
3172.0427768795512
 20
1478.327723001398
 30
0.0
 11
3183.5627768795512
 21
1478.327723001398
 31
0.0
  0
LINE
  5
CB6
  8
0
  6
CONTINUOUS
 62
     7
 10
3183.5627768795512
 20
1479.6477230013979
 30
0.0
 11
3183.5627768795512
 21
1478.327723001398
 31
0.0
  0
ARC
  5
CB7
  8
0
  6
CONTINUOUS
 62
     7
 10
3184.0627768795512
 20
1479.6477230013979
 30
0.0
 40
0.5
 50
0.0
 51
180.0
  0
LINE
  5
CB8
  8
0
  6
CONTINUOUS
 62
     7
 10
3184.5627768795512
 20
1479.6477230013979
 30
0.0
 11
3184.5627768795512
 21
1478.327723001398
 31
0.0
  0
LINE
  5
CB9
  8
0
  6
CONTINUOUS
 62
     7
 10
3184.5627768795512
 20
1478.327723001398
 30
0.0
 11
3196.0827768795511
 21
1478.327723001398
 31
0.0
  0
LINE
  5
CBA
  8
0
  6
CONTINUOUS
 62
     7
 10
3196.0827768795511
 20
1479.6477230013979
 30
0.0
 11
3196.0827768795511
 21
1478.327723001398
 31
0.0
  0
ARC
  5
CBB
  8
0
  6
CONTINUOUS
 62
     7
 10
3196.5827768795511
 20
1479.6477230013979
 30
0.0
 40
0.5
 50
0.0
 51
180.0
  0
LINE
  5
CBC
  8
0
  6
CONTINUOUS
 62
     7
 10
3197.0827768795511
 20
1479.6477230013979
 30
0.0
 11
3197.0827768795511
 21
1478.327723001398
 31
0.0
  0
LINE
  5
CBD
  8
0
  6
CONTINUOUS
 62
     7
 10
3197.0827768795511
 20
1478.327723001398
 30
0.0
 11
3208.6027768795511
 21
1478.327723001398
 31
0.0
  0
LINE
  5
CBE
  8
0
  6
CONTINUOUS
 62
     7
 10
3208.6027768795511
 20
1479.6477230013979
 30
0.0
 11
3208.6027768795511
 21
1478.327723001398
 31
0.0
  0
ARC
  5
CBF
  8
0
  6
CONTINUOUS
 62
     7
 10
3209.1027768795511
 20
1479.6477230013979
 30
0.0
 40
0.5
 50
0.0
 51
180.0
  0
LINE
  5
CC0
  8
0
  6
CONTINUOUS
 62
     7
 10
3209.6027768795511
 20
1479.6477230013979
 30
0.0
 11
3209.6027768795511
 21
1478.327723001398
 31
0.0
  0
LINE
  5
CC1
  8
0
  6
CONTINUOUS
 62
     7
 10
3209.6027768795511
 20
1478.327723001398
 30
0.0
 11
3221.1227768795511
 21
1478.327723001398
 31
0.0
  0
LINE
  5
CC2
  8
0
  6
CONTINUOUS
 62
     7
 10
3221.1227768795511
 20
1479.6477230013979
 30
0.0
 11
3221.1227768795511
 21
1478.327723001398
 31
0.0
  0
ARC
  5
CC3
  8
0
  6
CONTINUOUS
 62
     7
 10
3221.6227768795511
 20
1479.6477230013979
 30
0.0
 40
0.5
 50
0.0
 51
180.0
  0
LINE
  5
CC4
  8
0
  6
CONTINUOUS
 62
     7
 10
3222.1227768795511
 20
1479.6477230013979
 30
0.0
 11
3222.1227768795511
 21
1478.327723001398
 31
0.0
  0
LINE
  5
CC5
  8
0
  6
CONTINUOUS
 62
     7
 10
3222.1227768795511
 20
1478.327723001398
 30
0.0
 11
3228.702776879551
 21
1478.327723001398
 31
0.0
  0
LINE
  5
CC6
  8
0
  6
CONTINUOUS
 62
     7
 10
3228.702776879551
 20
1478.327723001398
 30
0.0
 11
3233.6427768795511
 21
1479.487754950298
 31
0.0
  0
LINE
  5
CC7
  8
0
  6
CONTINUOUS
 62
     7
 10
3233.6427768795511
 20
1481.117723001398
 30
0.0
 11
3233.6427768795511
 21
1479.487754950298
 31
0.0
  0
ARC
  5
CC8
  8
0
  6
CONTINUOUS
 62
     7
 10
3234.1427768795511
 20
1481.117723001398
 30
0.0
 40
0.5
 50
0.0
 51
180.0
  0
LINE
  5
CC9
  8
0
  6
CONTINUOUS
 62
     7
 10
3234.6427768795511
 20
1481.117723001398
 30
0.0
 11
3234.6427768795511
 21
1479.722579231398
 31
0.0
  0
LINE
  5
CCA
  8
0
  6
CONTINUOUS
 62
     7
 10
3234.6427768795511
 20
1479.722579231398
 30
0.0
 11
3246.1627768795511
 21
1482.4277549502981
 31
0.0
  0
LINE
  5
CCB
  8
0
  6
CONTINUOUS
 62
     7
 10
3246.1627768795511
 20
1484.057723001398
 30
0.0
 11
3246.1627768795511
 21
1482.4277549502981
 31
0.0
  0
ARC
  5
CCC
  8
0
  6
CONTINUOUS
 62
     7
 10
3249.6294395231248
 20
1437.306592633523
 30
0.0
 40
0.7351913151207157
 50
0.0
 51
180.0
  0
LINE
  5
CCD
  8
0
  6
CONTINUOUS
 62
     7
 10
3250.3646308382249
 20
1437.306592633523
 30
0.0
 11
3250.3646308382249
 21
1435.9666774951229
 31
0.0
  0
LINE
  5
CCE
  8
0
  6
CONTINUOUS
 62
     7
 10
3250.3646308382249
 20
1435.9666774951229
 30
0.0
 11
3257.300979186225
 21
1437.595500509723
 31
0.0
  0
LINE
  5
CCF
  8
0
  6
CONTINUOUS
 62
     7
 10
3257.300979186225
 20
1437.595500509723
 30
0.0
 11
3257.300979186225
 21
1441.0415926335229
 31
0.0
  0
LINE
  5
CD0
  8
0
  6
CONTINUOUS
 62
     7
 10
3254.9917374321249
 20
1441.0415926335229
 30
0.0
 11
3257.300979186225
 21
1441.0415926335229
 31
0.0
  0
LINE
  5
CD1
  8
0
  6
CONTINUOUS
 62
     7
 10
3254.9917374321249
 20
1450.691592633523
 30
0.0
 11
3254.9917374321249
 21
1441.0415926335229
 31
0.0
  0
LINE
  5
CD2
  8
0
  6
CONTINUOUS
 62
     7
 10
3254.9917374321249
 20
1450.691592633523
 30
0.0
 11
3178.291737432125
 21
1450.691592633523
 31
0.0
  0
LINE
  5
CD3
  8
0
  6
CONTINUOUS
 62
     7
 10
3178.291737432125
 20
1453.391592633523
 30
0.0
 11
3178.291737432125
 21
1450.691592633523
 31
0.0
  0
LINE
  5
CD4
  8
0
  6
CONTINUOUS
 62
     7
 10
3254.9917374321249
 20
1453.391592633523
 30
0.0
 11
3178.291737432125
 21
1453.391592633523
 31
0.0
  0
LINE
  5
CD5
  8
0
  6
CONTINUOUS
 62
     7
 10
3254.9917374321249
 20
1463.0415926335229
 30
0.0
 11
3254.9917374321249
 21
1453.391592633523
 31
0.0
  0
LINE
  5
CD6
  8
0
  6
CONTINUOUS
 62
     7
 10
3254.9917374321249
 20
1463.0415926335229
 30
0.0
 11
3257.300979186225
 21
1463.0415926335229
 31
0.0
  0
LINE
  5
CD7
  8
0
  6
CONTINUOUS
 62
     7
 10
3257.300979186225
 20
1466.487684757423
 30
0.0
 11
3257.300979186225
 21
1463.0415926335229
 31
0.0
  0
LINE
  5
CD8
  8
0
  6
CONTINUOUS
 62
     7
 10
3243.8694395231259
 20
1469.6417364035231
 30
0.0
 11
3257.300979186225
 21
1466.487684757423
 31
0.0
  0
LINE
  5
CD9
  8
0
  6
CONTINUOUS
 62
     7
 10
3243.8694395231259
 20
1468.2465926335231
 30
0.0
 11
3243.8694395231259
 21
1469.6417364035231
 31
0.0
  0
ARC
  5
CDA
  8
0
  6
CONTINUOUS
 62
     7
 10
3243.369439523125
 20
1468.2465926335231
 30
0.0
 40
0.5
 50
180.0
 51
0.0
  0
LINE
  5
CDB
  8
0
  6
CONTINUOUS
 62
     7
 10
3242.8694395231259
 20
1468.2465926335231
 30
0.0
 11
3242.8694395231259
 21
1469.876560684623
 31
0.0
  0
LINE
  5
CDC
  8
0
  6
CONTINUOUS
 62
     7
 10
3231.3494395231251
 20
1472.5817364035231
 30
0.0
 11
3242.8694395231259
 21
1469.876560684623
 31
0.0
  0
LINE
  5
CDD
  8
0
  6
CONTINUOUS
 62
     7
 10
3231.3494395231251
 20
1471.1865926335231
 30
0.0
 11
3231.3494395231251
 21
1472.5817364035231
 31
0.0
  0
ARC
  5
CDE
  8
0
  6
CONTINUOUS
 62
     7
 10
3230.8494395231251
 20
1471.1865926335231
 30
0.0
 40
0.5
 50
180.0
 51
0.0
  0
LINE
  5
CDF
  8
0
  6
CONTINUOUS
 62
     7
 10
3230.349439523126
 20
1471.1865926335231
 30
0.0
 11
3230.349439523126
 21
1472.816560684623
 31
0.0
  0
LINE
  5
CE0
  8
0
  6
CONTINUOUS
 62
     7
 10
3228.5394395231251
 20
1473.2415926335229
 30
0.0
 11
3230.349439523126
 21
1472.816560684623
 31
0.0
  0
LINE
  5
CE1
  8
0
  6
CONTINUOUS
 62
     7
 10
3218.8294395231251
 20
1473.2415926335229
 30
0.0
 11
3228.5394395231251
 21
1473.2415926335229
 31
0.0
  0
LINE
  5
CE2
  8
0
  6
CONTINUOUS
 62
     7
 10
3218.8294395231251
 20
1471.921592633523
 30
0.0
 11
3218.8294395231251
 21
1473.2415926335229
 31
0.0
  0
ARC
  5
CE3
  8
0
  6
CONTINUOUS
 62
     7
 10
3218.3294395231251
 20
1471.921592633523
 30
0.0
 40
0.5
 50
180.0
 51
0.0
  0
LINE
  5
CE4
  8
0
  6
CONTINUOUS
 62
     7
 10
3217.8294395231251
 20
1471.921592633523
 30
0.0
 11
3217.8294395231251
 21
1473.2415926335229
 31
0.0
  0
LINE
  5
CE5
  8
0
  6
CONTINUOUS
 62
     7
 10
3206.3094395231251
 20
1473.2415926335229
 30
0.0
 11
3217.8294395231251
 21
1473.2415926335229
 31
0.0
  0
LINE
  5
CE6
  8
0
  6
CONTINUOUS
 62
     7
 10
3206.3094395231251
 20
1471.921592633523
 30
0.0
 11
3206.3094395231251
 21
1473.2415926335229
 31
0.0
  0
ARC
  5
CE7
  8
0
  6
CONTINUOUS
 62
     7
 10
3205.8094395231251
 20
1471.921592633523
 30
0.0
 40
0.5
 50
180.0
 51
0.0
  0
LINE
  5
CE8
  8
0
  6
CONTINUOUS
 62
     7
 10
3205.3094395231251
 20
1471.921592633523
 30
0.0
 11
3205.3094395231251
 21
1473.2415926335229
 31
0.0
  0
LINE
  5
CE9
  8
0
  6
CONTINUOUS
 62
     7
 10
3193.7894395231251
 20
1473.2415926335229
 30
0.0
 11
3205.3094395231251
 21
1473.2415926335229
 31
0.0
  0
LINE
  5
CEA
  8
0
  6
CONTINUOUS
 62
     7
 10
3193.7894395231251
 20
1471.921592633523
 30
0.0
 11
3193.7894395231251
 21
1473.2415926335229
 31
0.0
  0
ARC
  5
CEB
  8
0
  6
CONTINUOUS
 62
     7
 10
3193.2894395231251
 20
1471.921592633523
 30
0.0
 40
0.5
 50
180.0
 51
0.0
  0
LINE
  5
CEC
  8
0
  6
CONTINUOUS
 62
     7
 10
3192.7894395231251
 20
1471.921592633523
 30
0.0
 11
3192.7894395231251
 21
1473.2415926335229
 31
0.0
  0
LINE
  5
CED
  8
0
  6
CONTINUOUS
 62
     7
 10
3181.2694395231251
 20
1473.2415926335229
 30
0.0
 11
3192.7894395231251
 21
1473.2415926335229
 31
0.0
  0
LINE
  5
CEE
  8
0
  6
CONTINUOUS
 62
     7
 10
3181.2694395231251
 20
1471.921592633523
 30
0.0
 11
3181.2694395231251
 21
1473.2415926335229
 31
0.0
  0
ARC
  5
CEF
  8
0
  6
CONTINUOUS
 62
     7
 10
3180.7694395231251
 20
1471.921592633523
 30
0.0
 40
0.5
 50
180.0
 51
0.0
  0
LINE
  5
CF0
  8
0
  6
CONTINUOUS
 62
     7
 10
3180.2694395231251
 20
1471.921592633523
 30
0.0
 11
3180.2694395231251
 21
1473.2415926335229
 31
0.0
  0
LINE
  5
CF1
  8
0
  6
CONTINUOUS
 62
     7
 10
3168.7494395231251
 20
1473.2415926335229
 30
0.0
 11
3180.2694395231251
 21
1473.2415926335229
 31
0.0
  0
LINE
  5
CF2
  8
0
  6
CONTINUOUS
 62
     7
 10
3168.7494395231251
 20
1471.921592633523
 30
0.0
 11
3168.7494395231251
 21
1473.2415926335229
 31
0.0
  0
ARC
  5
CF3
  8
0
  6
CONTINUOUS
 62
     7
 10
3168.2494395231251
 20
1471.921592633523
 30
0.0
 40
0.4999999999999997
 50
180.0
 51
0.0
  0
LINE
  5
CF4
  8
0
  6
CONTINUOUS
 62
     7
 10
3167.7494395231261
 20
1471.921592633523
 30
0.0
 11
3167.7494395231261
 21
1473.2415926335229
 31
0.0
  0
LINE
  5
CF5
  8
0
  6
CONTINUOUS
 62
     7
 10
3156.2294395231252
 20
1473.2415926335229
 30
0.0
 11
3167.7494395231261
 21
1473.2415926335229
 31
0.0
  0
LINE
  5
CF6
  8
0
  6
CONTINUOUS
 62
     7
 10
3156.2294395231252
 20
1471.921592633523
 30
0.0
 11
3156.2294395231252
 21
1473.2415926335229
 31
0.0
  0
ARC
  5
CF7
  8
0
  6
CONTINUOUS
 62
     7
 10
3155.7294395231252
 20
1471.921592633523
 30
0.0
 40
0.5
 50
180.0
 51
0.0
  0
LINE
  5
CF8
  8
0
  6
CONTINUOUS
 62
     7
 10
3155.2294395231261
 20
1471.921592633523
 30
0.0
 11
3155.2294395231261
 21
1473.2415926335229
 31
0.0
  0
LINE
  5
CF9
  8
0
  6
CONTINUOUS
 62
     7
 10
3143.7094395231252
 20
1473.2415926335229
 30
0.0
 11
3155.2294395231261
 21
1473.2415926335229
 31
0.0
  0
LINE
  5
CFA
  8
0
  6
CONTINUOUS
 62
     7
 10
3143.7094395231252
 20
1471.921592633523
 30
0.0
 11
3143.7094395231252
 21
1473.2415926335229
 31
0.0
  0
ARC
  5
CFB
  8
0
  6
CONTINUOUS
 62
     7
 10
3143.2094395231261
 20
1471.921592633523
 30
0.0
 40
0.5
 50
180.0
 51
0.0
  0
LINE
  5
CFC
  8
0
  6
CONTINUOUS
 62
     7
 10
3142.7094395231252
 20
1471.921592633523
 30
0.0
 11
3142.7094395231252
 21
1473.2415926335229
 31
0.0
  0
LINE
  5
CFD
  8
0
  6
CONTINUOUS
 62
     7
 10
3131.1894395231252
 20
1473.2415926335229
 30
0.0
 11
3142.7094395231252
 21
1473.2415926335229
 31
0.0
  0
LINE
  5
CFE
  8
0
  6
CONTINUOUS
 62
     7
 10
3131.1894395231252
 20
1471.921592633523
 30
0.0
 11
3131.1894395231252
 21
1473.2415926335229
 31
0.0
  0
ARC
  5
CFF
  8
0
  6
CONTINUOUS
 62
     7
 10
3130.6894395231261
 20
1471.921592633523
 30
0.0
 40
0.5
 50
180.0
 51
0.0
  0
LINE
  5
D00
  8
0
  6
CONTINUOUS
 62
     7
 10
3130.1894395231252
 20
1471.921592633523
 30
0.0
 11
3130.1894395231252
 21
1473.2415926335229
 31
0.0
  0
LINE
  5
D01
  8
0
  6
CONTINUOUS
 62
     7
 10
3118.6694395231261
 20
1473.2415926335229
 30
0.0
 11
3130.1894395231252
 21
1473.2415926335229
 31
0.0
  0
LINE
  5
D02
  8
0
  6
CONTINUOUS
 62
     7
 10
3118.6694395231261
 20
1471.921592633523
 30
0.0
 11
3118.6694395231261
 21
1473.2415926335229
 31
0.0
  0
ARC
  5
D03
  8
0
  6
CONTINUOUS
 62
     7
 10
3118.1694395231252
 20
1471.921592633523
 30
0.0
 40
0.5
 50
180.0
 51
0.0
  0
LINE
  5
D04
  8
0
  6
CONTINUOUS
 62
     7
 10
3117.6694395231252
 20
1471.921592633523
 30
0.0
 11
3117.6694395231252
 21
1473.2415926335229
 31
0.0
  0
LINE
  5
D05
  8
0
  6
CONTINUOUS
 62
     7
 10
3106.1494395231261
 20
1473.2415926335229
 30
0.0
 11
3117.6694395231252
 21
1473.2415926335229
 31
0.0
  0
LINE
  5
D06
  8
0
  6
CONTINUOUS
 62
     7
 10
3106.1494395231261
 20
1471.921592633523
 30
0.0
 11
3106.1494395231261
 21
1473.2415926335229
 31
0.0
  0
ARC
  5
D07
  8
0
  6
CONTINUOUS
 62
     7
 10
3105.6494395231248
 20
1471.921592633523
 30
0.0
 40
0.5
 50
180.0
 51
0.0
  0
LINE
  5
D08
  8
0
  6
CONTINUOUS
 62
     7
 10
3105.1494395231248
 20
1471.921592633523
 30
0.0
 11
3105.1494395231248
 21
1473.2415926335229
 31
0.0
  0
LINE
  5
D09
  8
0
  6
CONTINUOUS
 62
     7
 10
3093.6294395231248
 20
1473.2415926335229
 30
0.0
 11
3105.1494395231248
 21
1473.2415926335229
 31
0.0
  0
LINE
  5
D0A
  8
0
  6
CONTINUOUS
 62
     7
 10
3093.6294395231248
 20
1471.921592633523
 30
0.0
 11
3093.6294395231248
 21
1473.2415926335229
 31
0.0
  0
ARC
  5
D0B
  8
0
  6
CONTINUOUS
 62
     7
 10
3093.1294395231248
 20
1471.921592633523
 30
0.0
 40
0.5
 50
180.0
 51
0.0
  0
LINE
  5
D0C
  8
0
  6
CONTINUOUS
 62
     7
 10
3092.6294395231248
 20
1471.921592633523
 30
0.0
 11
3092.6294395231248
 21
1473.2415926335229
 31
0.0
  0
LINE
  5
D0D
  8
0
  6
CONTINUOUS
 62
     7
 10
3084.9994395231251
 20
1473.2415926335229
 30
0.0
 11
3092.6294395231248
 21
1473.2415926335229
 31
0.0
  0
LINE
  5
D0E
  8
0
  6
CONTINUOUS
 62
     7
 10
3084.9994395231251
 20
1473.2415926335229
 30
0.0
 11
3084.9994395231251
 21
1463.0415926335229
 31
0.0
  0
LINE
  5
D0F
  8
0
  6
CONTINUOUS
 62
     7
 10
3087.7994395231258
 20
1463.0415926335229
 30
0.0
 11
3084.9994395231251
 21
1463.0415926335229
 31
0.0
  0
LINE
  5
D10
  8
0
  6
CONTINUOUS
 62
     7
 10
3087.7994395231258
 20
1441.0415926335229
 30
0.0
 11
3087.7994395231258
 21
1463.0415926335229
 31
0.0
  0
LINE
  5
D11
  8
0
  6
CONTINUOUS
 62
     7
 10
3087.7994395231258
 20
1441.0415926335229
 30
0.0
 11
3084.9994395231251
 21
1441.0415926335229
 31
0.0
  0
LINE
  5
D12
  8
0
  6
CONTINUOUS
 62
     7
 10
3084.9994395231251
 20
1441.0415926335229
 30
0.0
 11
3084.9994395231251
 21
1430.8415926335231
 31
0.0
  0
LINE
  5
D13
  8
0
  6
CONTINUOUS
 62
     7
 10
3084.9994395231251
 20
1430.8415926335231
 30
0.0
 11
3098.6542482080249
 21
1430.8415926335231
 31
0.0
  0
LINE
  5
D14
  8
0
  6
CONTINUOUS
 62
     7
 10
3098.6542482080249
 20
1432.161592633523
 30
0.0
 11
3098.6542482080249
 21
1430.8415926335231
 31
0.0
  0
ARC
  5
D15
  8
0
  6
CONTINUOUS
 62
     7
 10
3099.389439523125
 20
1432.161592633523
 30
0.0
 40
0.7351913151207015
 50
0.0
 51
180.0
  0
LINE
  5
D16
  8
0
  6
CONTINUOUS
 62
     7
 10
3100.1246308382251
 20
1432.161592633523
 30
0.0
 11
3100.1246308382251
 21
1430.8415926335231
 31
0.0
  0
LINE
  5
D17
  8
0
  6
CONTINUOUS
 62
     7
 10
3100.1246308382251
 20
1430.8415926335231
 30
0.0
 11
3111.1742482080249
 21
1430.8415926335231
 31
0.0
  0
LINE
  5
D18
  8
0
  6
CONTINUOUS
 62
     7
 10
3111.1742482080249
 20
1432.161592633523
 30
0.0
 11
3111.1742482080249
 21
1430.8415926335231
 31
0.0
  0
ARC
  5
D19
  8
0
  6
CONTINUOUS
 62
     7
 10
3111.909439523125
 20
1432.161592633523
 30
0.0
 40
0.7351913151207015
 50
0.0
 51
180.0
  0
LINE
  5
D1A
  8
0
  6
CONTINUOUS
 62
     7
 10
3112.644630838226
 20
1432.161592633523
 30
0.0
 11
3112.644630838226
 21
1430.8415926335231
 31
0.0
  0
LINE
  5
D1B
  8
0
  6
CONTINUOUS
 62
     7
 10
3112.644630838226
 20
1430.8415926335231
 30
0.0
 11
3123.6942482080258
 21
1430.8415926335231
 31
0.0
  0
LINE
  5
D1C
  8
0
  6
CONTINUOUS
 62
     7
 10
3123.6942482080258
 20
1432.161592633523
 30
0.0
 11
3123.6942482080258
 21
1430.8415926335231
 31
0.0
  0
ARC
  5
D1D
  8
0
  6
CONTINUOUS
 62
     7
 10
3124.429439523125
 20
1432.161592633523
 30
0.0
 40
0.7351913151207015
 50
0.0
 51
180.0
  0
LINE
  5
D1E
  8
0
  6
CONTINUOUS
 62
     7
 10
3125.1646308382251
 20
1432.161592633523
 30
0.0
 11
3125.1646308382251
 21
1430.8415926335231
 31
0.0
  0
LINE
  5
D1F
  8
0
  6
CONTINUOUS
 62
     7
 10
3125.1646308382251
 20
1430.8415926335231
 30
0.0
 11
3136.2142482080249
 21
1430.8415926335231
 31
0.0
  0
LINE
  5
D20
  8
0
  6
CONTINUOUS
 62
     7
 10
3136.2142482080249
 20
1432.161592633523
 30
0.0
 11
3136.2142482080249
 21
1430.8415926335231
 31
0.0
  0
ARC
  5
D21
  8
0
  6
CONTINUOUS
 62
     7
 10
3136.949439523125
 20
1432.161592633523
 30
0.0
 40
0.7351913151206944
 50
0.0
 51
180.0
  0
LINE
  5
D22
  8
0
  6
CONTINUOUS
 62
     7
 10
3137.6846308382251
 20
1432.161592633523
 30
0.0
 11
3137.6846308382251
 21
1430.8415926335231
 31
0.0
  0
LINE
  5
D23
  8
0
  6
CONTINUOUS
 62
     7
 10
3137.6846308382251
 20
1430.8415926335231
 30
0.0
 11
3148.7342482080262
 21
1430.8415926335231
 31
0.0
  0
LINE
  5
D24
  8
0
  6
CONTINUOUS
 62
     7
 10
3148.7342482080262
 20
1432.161592633523
 30
0.0
 11
3148.7342482080262
 21
1430.8415926335231
 31
0.0
  0
ARC
  5
D25
  8
0
  6
CONTINUOUS
 62
     7
 10
3149.4694395231249
 20
1432.161592633523
 30
0.0
 40
0.7351913151206979
 50
0.0
 51
180.0
  0
LINE
  5
D26
  8
0
  6
CONTINUOUS
 62
     7
 10
3150.2046308382251
 20
1432.161592633523
 30
0.0
 11
3150.2046308382251
 21
1430.8415926335231
 31
0.0
  0
LINE
  5
D27
  8
0
  6
CONTINUOUS
 62
     7
 10
3150.2046308382251
 20
1430.8415926335231
 30
0.0
 11
3161.2542482080262
 21
1430.8415926335231
 31
0.0
  0
LINE
  5
D28
  8
0
  6
CONTINUOUS
 62
     7
 10
3161.2542482080262
 20
1432.161592633523
 30
0.0
 11
3161.2542482080262
 21
1430.8415926335231
 31
0.0
  0
ARC
  5
D29
  8
0
  6
CONTINUOUS
 62
     7
 10
3161.9894395231258
 20
1432.161592633523
 30
0.0
 40
0.7351913151206979
 50
0.0
 51
180.0
  0
LINE
  5
D2A
  8
0
  6
CONTINUOUS
 62
     7
 10
3162.724630838225
 20
1432.161592633523
 30
0.0
 11
3162.724630838225
 21
1430.8415926335231
 31
0.0
  0
LINE
  5
D2B
  8
0
  6
CONTINUOUS
 62
     7
 10
3162.724630838225
 20
1430.8415926335231
 30
0.0
 11
3173.7742482080262
 21
1430.8415926335231
 31
0.0
  0
LINE
  5
D2C
  8
0
  6
CONTINUOUS
 62
     7
 10
3173.7742482080262
 20
1432.161592633523
 30
0.0
 11
3173.7742482080262
 21
1430.8415926335231
 31
0.0
  0
ARC
  5
D2D
  8
0
  6
CONTINUOUS
 62
     7
 10
3174.5094395231258
 20
1432.161592633523
 30
0.0
 40
0.7351913151206971
 50
0.0
 51
180.0
  0
LINE
  5
D2E
  8
0
  6
CONTINUOUS
 62
     7
 10
3175.244630838225
 20
1432.161592633523
 30
0.0
 11
3175.244630838225
 21
1430.8415926335231
 31
0.0
  0
LINE
  5
D2F
  8
0
  6
CONTINUOUS
 62
     7
 10
3175.244630838225
 20
1430.8415926335231
 30
0.0
 11
3186.2942482080248
 21
1430.8415926335231
 31
0.0
  0
LINE
  5
D30
  8
0
  6
CONTINUOUS
 62
     7
 10
3186.2942482080248
 20
1432.161592633523
 30
0.0
 11
3186.2942482080248
 21
1430.8415926335231
 31
0.0
  0
ARC
  5
D31
  8
0
  6
CONTINUOUS
 62
     7
 10
3187.0294395231258
 20
1432.161592633523
 30
0.0
 40
0.7351913151206962
 50
0.0
 51
180.0
  0
LINE
  5
D32
  8
0
  6
CONTINUOUS
 62
     7
 10
3187.764630838225
 20
1432.161592633523
 30
0.0
 11
3187.764630838225
 21
1430.8415926335231
 31
0.0
  0
LINE
  5
D33
  8
0
  6
CONTINUOUS
 62
     7
 10
3187.764630838225
 20
1430.8415926335231
 30
0.0
 11
3198.8142482080252
 21
1430.8415926335231
 31
0.0
  0
LINE
  5
D34
  8
0
  6
CONTINUOUS
 62
     7
 10
3198.8142482080252
 20
1432.161592633523
 30
0.0
 11
3198.8142482080252
 21
1430.8415926335231
 31
0.0
  0
ARC
  5
D35
  8
0
  6
CONTINUOUS
 62
     7
 10
3199.5494395231258
 20
1432.161592633523
 30
0.0
 40
0.7351913151206979
 50
0.0
 51
180.0
  0
LINE
  5
D36
  8
0
  6
CONTINUOUS
 62
     7
 10
3200.2846308382259
 20
1432.161592633523
 30
0.0
 11
3200.2846308382259
 21
1430.8415926335231
 31
0.0
  0
LINE
  5
D37
  8
0
  6
CONTINUOUS
 62
     7
 10
3200.2846308382259
 20
1430.8415926335231
 30
0.0
 11
3211.3342482080261
 21
1430.8415926335231
 31
0.0
  0
LINE
  5
D38
  8
0
  6
CONTINUOUS
 62
     7
 10
3211.3342482080261
 20
1432.161592633523
 30
0.0
 11
3211.3342482080261
 21
1430.8415926335231
 31
0.0
  0
ARC
  5
D39
  8
0
  6
CONTINUOUS
 62
     7
 10
3212.0694395231249
 20
1432.161592633523
 30
0.0
 40
0.7351913151206944
 50
0.0
 51
180.0
  0
LINE
  5
D3A
  8
0
  6
CONTINUOUS
 62
     7
 10
3212.804630838225
 20
1432.161592633523
 30
0.0
 11
3212.804630838225
 21
1430.8415926335231
 31
0.0
  0
LINE
  5
D3B
  8
0
  6
CONTINUOUS
 62
     7
 10
3212.804630838225
 20
1430.8415926335231
 30
0.0
 11
3223.8542482080261
 21
1430.8415926335231
 31
0.0
  0
LINE
  5
D3C
  8
0
  6
CONTINUOUS
 62
     7
 10
3223.8542482080261
 20
1432.161592633523
 30
0.0
 11
3223.8542482080261
 21
1430.8415926335231
 31
0.0
  0
ARC
  5
D3D
  8
0
  6
CONTINUOUS
 62
     7
 10
3224.5894395231248
 20
1432.161592633523
 30
0.0
 40
0.7351913151206944
 50
0.0
 51
180.0
  0
LINE
  5
D3E
  8
0
  6
CONTINUOUS
 62
     7
 10
3225.3246308382249
 20
1432.161592633523
 30
0.0
 11
3225.3246308382249
 21
1430.8415926335231
 31
0.0
  0
LINE
  5
D3F
  8
0
  6
CONTINUOUS
 62
     7
 10
3225.3246308382249
 20
1430.8415926335231
 30
0.0
 11
3228.5394395231251
 21
1430.8415926335231
 31
0.0
  0
LINE
  5
D40
  8
0
  6
CONTINUOUS
 62
     7
 10
3228.5394395231251
 20
1430.8415926335231
 30
0.0
 11
3236.3742482080261
 21
1432.6813959509229
 31
0.0
  0
LINE
  5
D41
  8
0
  6
CONTINUOUS
 62
     7
 10
3236.3742482080261
 20
1434.3665926335229
 30
0.0
 11
3236.3742482080261
 21
1432.6813959509229
 31
0.0
  0
ARC
  5
D42
  8
0
  6
CONTINUOUS
 62
     7
 10
3237.1094395231262
 20
1434.3665926335229
 30
0.0
 40
0.7351913151207015
 50
0.0
 51
180.0
  0
LINE
  5
D43
  8
0
  6
CONTINUOUS
 62
     7
 10
3237.8446308382249
 20
1434.3665926335229
 30
0.0
 11
3237.8446308382249
 21
1433.0266774951231
 31
0.0
  0
LINE
  5
D44
  8
0
  6
CONTINUOUS
 62
     7
 10
3237.8446308382249
 20
1433.0266774951231
 30
0.0
 11
3248.8942482080261
 21
1435.621395950923
 31
0.0
  0
LINE
  5
D45
  8
0
  6
CONTINUOUS
 62
     7
 10
3248.8942482080261
 20
1437.306592633523
 30
0.0
 11
3248.8942482080261
 21
1435.621395950923
 31
0.0
  0
ARC
  5
E42
  8
0
  6
CONTINUOUS
 62
     7
 10
3267.9854702979828
 20
1397.004407286553
 30
0.0
 40
0.5
 50
90.0
 51
270.0
  0
LINE
  5
E43
  8
0
  6
CONTINUOUS
 62
     7
 10
3267.9854702979828
 20
1397.5044072865539
 30
0.0
 11
3269.3806140679831
 21
1397.5044072865539
 31
0.0
  0
LINE
  5
E44
  8
0
  6
CONTINUOUS
 62
     7
 10
3269.3806140679831
 20
1397.5044072865539
 30
0.0
 11
3266.9615624218818
 21
1407.8059469496529
 31
0.0
  0
LINE
  5
E45
  8
0
  6
CONTINUOUS
 62
     7
 10
3266.9615624218818
 20
1407.8059469496529
 30
0.0
 11
3263.515470297983
 21
1407.8059469496529
 31
0.0
  0
LINE
  5
E46
  8
0
  6
CONTINUOUS
 62
     7
 10
3263.515470297983
 20
1405.0059469496539
 30
0.0
 11
3263.515470297983
 21
1407.8059469496529
 31
0.0
  0
LINE
  5
E47
  8
0
  6
CONTINUOUS
 62
     7
 10
3241.515470297983
 20
1405.0059469496539
 30
0.0
 11
3263.515470297983
 21
1405.0059469496539
 31
0.0
  0
LINE
  5
E48
  8
0
  6
CONTINUOUS
 62
     7
 10
3241.515470297983
 20
1405.0059469496539
 30
0.0
 11
3241.515470297983
 21
1407.8059469496529
 31
0.0
  0
LINE
  5
E49
  8
0
  6
CONTINUOUS
 62
     7
 10
3238.069378174082
 20
1407.8059469496529
 30
0.0
 11
3241.515470297983
 21
1407.8059469496529
 31
0.0
  0
LINE
  5
E4A
  8
0
  6
CONTINUOUS
 62
     7
 10
3237.1203265279819
 20
1403.7644072865539
 30
0.0
 11
3238.069378174082
 21
1407.8059469496529
 31
0.0
  0
LINE
  5
E4B
  8
0
  6
CONTINUOUS
 62
     7
 10
3238.515470297983
 20
1403.7644072865539
 30
0.0
 11
3237.1203265279819
 21
1403.7644072865539
 31
0.0
  0
ARC
  5
E4C
  8
0
  6
CONTINUOUS
 62
     7
 10
3238.515470297983
 20
1403.2644072865539
 30
0.0
 40
0.5
 50
270.0
 51
90.0
  0
LINE
  5
E4D
  8
0
  6
CONTINUOUS
 62
     7
 10
3238.515470297983
 20
1402.7644072865539
 30
0.0
 11
3236.885502246882
 21
1402.7644072865539
 31
0.0
  0
LINE
  5
E4E
  8
0
  6
CONTINUOUS
 62
     7
 10
3234.1803265279818
 20
1391.244407286554
 30
0.0
 11
3236.885502246882
 21
1402.7644072865539
 31
0.0
  0
LINE
  5
E4F
  8
0
  6
CONTINUOUS
 62
     7
 10
3235.575470297983
 20
1391.244407286554
 30
0.0
 11
3234.1803265279818
 21
1391.244407286554
 31
0.0
  0
ARC
  5
E50
  8
0
  6
CONTINUOUS
 62
     7
 10
3235.575470297983
 20
1390.744407286554
 30
0.0
 40
0.5
 50
270.0
 51
90.0
  0
LINE
  5
E51
  8
0
  6
CONTINUOUS
 62
     7
 10
3235.575470297983
 20
1390.244407286554
 30
0.0
 11
3233.9455022468828
 21
1390.244407286554
 31
0.0
  0
LINE
  5
E52
  8
0
  6
CONTINUOUS
 62
     7
 10
3231.3154702979818
 20
1379.044407286553
 30
0.0
 11
3233.9455022468828
 21
1390.244407286554
 31
0.0
  0
LINE
  5
E53
  8
0
  6
CONTINUOUS
 62
     7
 10
3231.3154702979818
 20
1378.724407286554
 30
0.0
 11
3231.3154702979818
 21
1379.044407286553
 31
0.0
  0
LINE
  5
E54
  8
0
  6
CONTINUOUS
 62
     7
 10
3232.6354702979829
 20
1378.724407286554
 30
0.0
 11
3231.3154702979818
 21
1378.724407286554
 31
0.0
  0
ARC
  5
E55
  8
0
  6
CONTINUOUS
 62
     7
 10
3232.6354702979829
 20
1378.224407286554
 30
0.0
 40
0.5
 50
270.0
 51
90.0
  0
LINE
  5
E56
  8
0
  6
CONTINUOUS
 62
     7
 10
3232.6354702979829
 20
1377.724407286554
 30
0.0
 11
3231.3154702979818
 21
1377.724407286554
 31
0.0
  0
LINE
  5
E57
  8
0
  6
CONTINUOUS
 62
     7
 10
3231.3154702979818
 20
1366.2044072865531
 30
0.0
 11
3231.3154702979818
 21
1377.724407286554
 31
0.0
  0
LINE
  5
E58
  8
0
  6
CONTINUOUS
 62
     7
 10
3232.6354702979829
 20
1366.2044072865531
 30
0.0
 11
3231.3154702979818
 21
1366.2044072865531
 31
0.0
  0
ARC
  5
E59
  8
0
  6
CONTINUOUS
 62
     7
 10
3232.6354702979829
 20
1365.7044072865531
 30
0.0
 40
0.5
 50
270.0
 51
90.0
  0
LINE
  5
E5A
  8
0
  6
CONTINUOUS
 62
     7
 10
3232.6354702979829
 20
1365.2044072865531
 30
0.0
 11
3231.3154702979818
 21
1365.2044072865531
 31
0.0
  0
LINE
  5
E5B
  8
0
  6
CONTINUOUS
 62
     7
 10
3231.3154702979818
 20
1353.684407286554
 30
0.0
 11
3231.3154702979818
 21
1365.2044072865531
 31
0.0
  0
LINE
  5
E5C
  8
0
  6
CONTINUOUS
 62
     7
 10
3232.6354702979829
 20
1353.684407286554
 30
0.0
 11
3231.3154702979818
 21
1353.684407286554
 31
0.0
  0
ARC
  5
E5D
  8
0
  6
CONTINUOUS
 62
     7
 10
3232.6354702979829
 20
1353.184407286554
 30
0.0
 40
0.5
 50
270.0
 51
90.0
  0
LINE
  5
E5E
  8
0
  6
CONTINUOUS
 62
     7
 10
3232.6354702979829
 20
1352.684407286554
 30
0.0
 11
3231.3154702979818
 21
1352.684407286554
 31
0.0
  0
LINE
  5
E5F
  8
0
  6
CONTINUOUS
 62
     7
 10
3231.3154702979818
 20
1341.164407286554
 30
0.0
 11
3231.3154702979818
 21
1352.684407286554
 31
0.0
  0
LINE
  5
E60
  8
0
  6
CONTINUOUS
 62
     7
 10
3232.6354702979829
 20
1341.164407286554
 30
0.0
 11
3231.3154702979818
 21
1341.164407286554
 31
0.0
  0
ARC
  5
E61
  8
0
  6
CONTINUOUS
 62
     7
 10
3232.6354702979829
 20
1340.6644072865529
 30
0.0
 40
0.5000000000000142
 50
270.0
 51
90.0
  0
LINE
  5
E62
  8
0
  6
CONTINUOUS
 62
     7
 10
3232.6354702979829
 20
1340.1644072865529
 30
0.0
 11
3231.3154702979818
 21
1340.1644072865529
 31
0.0
  0
LINE
  5
E63
  8
0
  6
CONTINUOUS
 62
     7
 10
3231.3154702979818
 20
1328.6444072865529
 30
0.0
 11
3231.3154702979818
 21
1340.1644072865529
 31
0.0
  0
LINE
  5
E64
  8
0
  6
CONTINUOUS
 62
     7
 10
3232.6354702979829
 20
1328.6444072865529
 30
0.0
 11
3231.3154702979818
 21
1328.6444072865529
 31
0.0
  0
ARC
  5
E65
  8
0
  6
CONTINUOUS
 62
     7
 10
3232.6354702979829
 20
1328.144407286554
 30
0.0
 40
0.5
 50
270.0
 51
90.0
  0
LINE
  5
E66
  8
0
  6
CONTINUOUS
 62
     7
 10
3232.6354702979829
 20
1327.6444072865529
 30
0.0
 11
3231.3154702979818
 21
1327.6444072865529
 31
0.0
  0
LINE
  5
E67
  8
0
  6
CONTINUOUS
 62
     7
 10
3231.3154702979818
 20
1316.1244072865529
 30
0.0
 11
3231.3154702979818
 21
1327.6444072865529
 31
0.0
  0
LINE
  5
E68
  8
0
  6
CONTINUOUS
 62
     7
 10
3232.6354702979829
 20
1316.1244072865529
 30
0.0
 11
3231.3154702979818
 21
1316.1244072865529
 31
0.0
  0
ARC
  5
E69
  8
0
  6
CONTINUOUS
 62
     7
 10
3232.6354702979829
 20
1315.6244072865529
 30
0.0
 40
0.5000000000000142
 50
270.0
 51
90.0
  0
LINE
  5
E6A
  8
0
  6
CONTINUOUS
 62
     7
 10
3232.6354702979829
 20
1315.1244072865529
 30
0.0
 11
3231.3154702979818
 21
1315.1244072865529
 31
0.0
  0
LINE
  5
E6B
  8
0
  6
CONTINUOUS
 62
     7
 10
3231.3154702979818
 20
1303.6044072865541
 30
0.0
 11
3231.3154702979818
 21
1315.1244072865529
 31
0.0
  0
LINE
  5
E6C
  8
0
  6
CONTINUOUS
 62
     7
 10
3232.6354702979829
 20
1303.6044072865541
 30
0.0
 11
3231.3154702979818
 21
1303.6044072865541
 31
0.0
  0
ARC
  5
E6D
  8
0
  6
CONTINUOUS
 62
     7
 10
3232.6354702979829
 20
1303.1044072865541
 30
0.0
 40
0.5
 50
270.0
 51
90.0
  0
LINE
  5
E6E
  8
0
  6
CONTINUOUS
 62
     7
 10
3232.6354702979829
 20
1302.6044072865529
 30
0.0
 11
3231.3154702979818
 21
1302.6044072865529
 31
0.0
  0
LINE
  5
E6F
  8
0
  6
CONTINUOUS
 62
     7
 10
3231.3154702979818
 20
1291.084407286553
 30
0.0
 11
3231.3154702979818
 21
1302.6044072865529
 31
0.0
  0
LINE
  5
E70
  8
0
  6
CONTINUOUS
 62
     7
 10
3232.6354702979829
 20
1291.084407286553
 30
0.0
 11
3231.3154702979818
 21
1291.084407286553
 31
0.0
  0
ARC
  5
E71
  8
0
  6
CONTINUOUS
 62
     7
 10
3232.6354702979829
 20
1290.584407286553
 30
0.0
 40
0.5
 50
270.0
 51
90.0
  0
LINE
  5
E72
  8
0
  6
CONTINUOUS
 62
     7
 10
3232.6354702979829
 20
1290.0844072865541
 30
0.0
 11
3231.3154702979818
 21
1290.0844072865541
 31
0.0
  0
LINE
  5
E73
  8
0
  6
CONTINUOUS
 62
     7
 10
3231.3154702979818
 20
1278.5644072865539
 30
0.0
 11
3231.3154702979818
 21
1290.0844072865541
 31
0.0
  0
LINE
  5
E74
  8
0
  6
CONTINUOUS
 62
     7
 10
3232.6354702979829
 20
1278.5644072865539
 30
0.0
 11
3231.3154702979818
 21
1278.5644072865539
 31
0.0
  0
ARC
  5
E75
  8
0
  6
CONTINUOUS
 62
     7
 10
3232.6354702979829
 20
1278.064407286553
 30
0.0
 40
0.5
 50
270.0
 51
90.0
  0
LINE
  5
E76
  8
0
  6
CONTINUOUS
 62
     7
 10
3232.6354702979829
 20
1277.564407286553
 30
0.0
 11
3231.3154702979818
 21
1277.564407286553
 31
0.0
  0
LINE
  5
E77
  8
0
  6
CONTINUOUS
 62
     7
 10
3231.3154702979818
 20
1266.044407286553
 30
0.0
 11
3231.3154702979818
 21
1277.564407286553
 31
0.0
  0
LINE
  5
E78
  8
0
  6
CONTINUOUS
 62
     7
 10
3232.6354702979829
 20
1266.044407286553
 30
0.0
 11
3231.3154702979818
 21
1266.044407286553
 31
0.0
  0
ARC
  5
E79
  8
0
  6
CONTINUOUS
 62
     7
 10
3232.6354702979829
 20
1265.5444072865539
 30
0.0
 40
0.5000000000000071
 50
270.0
 51
90.0
  0
LINE
  5
E7A
  8
0
  6
CONTINUOUS
 62
     7
 10
3232.6354702979829
 20
1265.0444072865539
 30
0.0
 11
3231.3154702979818
 21
1265.0444072865539
 31
0.0
  0
LINE
  5
E7B
  8
0
  6
CONTINUOUS
 62
     7
 10
3231.3154702979818
 20
1253.5244072865539
 30
0.0
 11
3231.3154702979818
 21
1265.0444072865539
 31
0.0
  0
LINE
  5
E7C
  8
0
  6
CONTINUOUS
 62
     7
 10
3232.6354702979829
 20
1253.5244072865539
 30
0.0
 11
3231.3154702979818
 21
1253.5244072865539
 31
0.0
  0
ARC
  5
E7D
  8
0
  6
CONTINUOUS
 62
     7
 10
3232.6354702979829
 20
1253.024407286553
 30
0.0
 40
0.5000000000000036
 50
270.0
 51
90.0
  0
LINE
  5
E7E
  8
0
  6
CONTINUOUS
 62
     7
 10
3232.6354702979829
 20
1252.5244072865539
 30
0.0
 11
3231.3154702979818
 21
1252.5244072865539
 31
0.0
  0
LINE
  5
E7F
  8
0
  6
CONTINUOUS
 62
     7
 10
3231.3154702979818
 20
1245.9622090418529
 30
0.0
 11
3231.3154702979818
 21
1252.5244072865539
 31
0.0
  0
ARC
  5
E80
  8
0
  6
CONTINUOUS
 62
     7
 10
3233.3154702979832
 20
1245.9622090418529
 30
0.0
 40
2.0
 50
180.0
 51
262.89798567778797
  0
ARC
  5
E81
  8
0
  6
CONTINUOUS
 62
     7
 10
3232.6354702979829
 20
1240.5044072865539
 30
0.0
 40
3.5
 50
0.0
 51
82.897985677787943
  0
LINE
  5
E82
  8
0
  6
CONTINUOUS
 62
     7
 10
3236.1354702979829
 20
1240.5044072865539
 30
0.0
 11
3236.1354702979829
 21
1235.504407286553
 31
0.0
  0
LINE
  5
E83
  8
0
  6
CONTINUOUS
 62
     7
 10
3241.515470297983
 20
1235.504407286553
 30
0.0
 11
3236.1354702979829
 21
1235.504407286553
 31
0.0
  0
LINE
  5
E84
  8
0
  6
CONTINUOUS
 62
     7
 10
3241.515470297983
 20
1238.3044072865539
 30
0.0
 11
3241.515470297983
 21
1235.504407286553
 31
0.0
  0
LINE
  5
E85
  8
0
  6
CONTINUOUS
 62
     7
 10
3241.515470297983
 20
1238.3044072865539
 30
0.0
 11
3251.1654702979831
 21
1238.3044072865539
 31
0.0
  0
LINE
  5
E86
  8
0
  6
CONTINUOUS
 62
     7
 10
3251.1654702979831
 20
1238.3044072865539
 30
0.0
 11
3251.1654702979831
 21
1328.3044072865539
 31
0.0
  0
LINE
  5
E87
  8
0
  6
CONTINUOUS
 62
     7
 10
3251.1654702979831
 20
1328.3044072865539
 30
0.0
 11
3253.865470297982
 21
1328.3044072865539
 31
0.0
  0
LINE
  5
E88
  8
0
  6
CONTINUOUS
 62
     7
 10
3253.865470297982
 20
1238.3044072865539
 30
0.0
 11
3253.865470297982
 21
1328.3044072865539
 31
0.0
  0
LINE
  5
E89
  8
0
  6
CONTINUOUS
 62
     7
 10
3253.865470297982
 20
1238.3044072865539
 30
0.0
 11
3263.515470297983
 21
1238.3044072865539
 31
0.0
  0
LINE
  5
E8A
  8
0
  6
CONTINUOUS
 62
     7
 10
3263.515470297983
 20
1238.3044072865539
 30
0.0
 11
3263.515470297983
 21
1235.504407286553
 31
0.0
  0
LINE
  5
E8B
  8
0
  6
CONTINUOUS
 62
     7
 10
3273.7154702979819
 20
1235.504407286553
 30
0.0
 11
3263.515470297983
 21
1235.504407286553
 31
0.0
  0
LINE
  5
E8C
  8
0
  6
CONTINUOUS
 62
     7
 10
3273.7154702979819
 20
1235.504407286553
 30
0.0
 11
3273.7154702979819
 21
1246.2644072865539
 31
0.0
  0
LINE
  5
E8D
  8
0
  6
CONTINUOUS
 62
     7
 10
3272.3954702979831
 20
1246.2644072865539
 30
0.0
 11
3273.7154702979819
 21
1246.2644072865539
 31
0.0
  0
ARC
  5
E8E
  8
0
  6
CONTINUOUS
 62
     7
 10
3272.3954702979831
 20
1246.7644072865539
 30
0.0
 40
0.5000000000000018
 50
90.0
 51
270.0
  0
LINE
  5
E8F
  8
0
  6
CONTINUOUS
 62
     7
 10
3272.3954702979831
 20
1247.2644072865539
 30
0.0
 11
3273.7154702979819
 21
1247.2644072865539
 31
0.0
  0
LINE
  5
E90
  8
0
  6
CONTINUOUS
 62
     7
 10
3273.7154702979819
 20
1247.2644072865539
 30
0.0
 11
3273.7154702979819
 21
1258.7844072865539
 31
0.0
  0
LINE
  5
E91
  8
0
  6
CONTINUOUS
 62
     7
 10
3272.3954702979831
 20
1258.7844072865539
 30
0.0
 11
3273.7154702979819
 21
1258.7844072865539
 31
0.0
  0
ARC
  5
E92
  8
0
  6
CONTINUOUS
 62
     7
 10
3272.3954702979831
 20
1259.2844072865539
 30
0.0
 40
0.5000000000000036
 50
90.0
 51
270.0
  0
LINE
  5
E93
  8
0
  6
CONTINUOUS
 62
     7
 10
3272.3954702979831
 20
1259.7844072865539
 30
0.0
 11
3273.7154702979819
 21
1259.7844072865539
 31
0.0
  0
LINE
  5
E94
  8
0
  6
CONTINUOUS
 62
     7
 10
3273.7154702979819
 20
1259.7844072865539
 30
0.0
 11
3273.7154702979819
 21
1271.3044072865539
 31
0.0
  0
LINE
  5
E95
  8
0
  6
CONTINUOUS
 62
     7
 10
3272.3954702979831
 20
1271.3044072865539
 30
0.0
 11
3273.7154702979819
 21
1271.3044072865539
 31
0.0
  0
ARC
  5
E96
  8
0
  6
CONTINUOUS
 62
     7
 10
3272.3954702979831
 20
1271.8044072865539
 30
0.0
 40
0.5000000000000071
 50
90.0
 51
270.0
  0
LINE
  5
E97
  8
0
  6
CONTINUOUS
 62
     7
 10
3272.3954702979831
 20
1272.3044072865539
 30
0.0
 11
3273.7154702979819
 21
1272.3044072865539
 31
0.0
  0
LINE
  5
E98
  8
0
  6
CONTINUOUS
 62
     7
 10
3273.7154702979819
 20
1272.3044072865539
 30
0.0
 11
3273.7154702979819
 21
1283.8244072865541
 31
0.0
  0
LINE
  5
E99
  8
0
  6
CONTINUOUS
 62
     7
 10
3272.3954702979831
 20
1283.8244072865541
 30
0.0
 11
3273.7154702979819
 21
1283.8244072865541
 31
0.0
  0
ARC
  5
E9A
  8
0
  6
CONTINUOUS
 62
     7
 10
3272.3954702979831
 20
1284.3244072865541
 30
0.0
 40
0.5
 50
90.0
 51
270.0
  0
LINE
  5
E9B
  8
0
  6
CONTINUOUS
 62
     7
 10
3272.3954702979831
 20
1284.8244072865541
 30
0.0
 11
3273.7154702979819
 21
1284.8244072865541
 31
0.0
  0
LINE
  5
E9C
  8
0
  6
CONTINUOUS
 62
     7
 10
3273.7154702979819
 20
1284.8244072865541
 30
0.0
 11
3273.7154702979819
 21
1296.3444072865541
 31
0.0
  0
LINE
  5
E9D
  8
0
  6
CONTINUOUS
 62
     7
 10
3272.3954702979831
 20
1296.3444072865541
 30
0.0
 11
3273.7154702979819
 21
1296.3444072865541
 31
0.0
  0
ARC
  5
E9E
  8
0
  6
CONTINUOUS
 62
     7
 10
3272.3954702979831
 20
1296.8444072865541
 30
0.0
 40
0.5
 50
90.0
 51
270.0
  0
LINE
  5
E9F
  8
0
  6
CONTINUOUS
 62
     7
 10
3272.3954702979831
 20
1297.3444072865541
 30
0.0
 11
3273.7154702979819
 21
1297.3444072865541
 31
0.0
  0
LINE
  5
EA0
  8
0
  6
CONTINUOUS
 62
     7
 10
3273.7154702979819
 20
1297.3444072865541
 30
0.0
 11
3273.7154702979819
 21
1308.8644072865541
 31
0.0
  0
LINE
  5
EA1
  8
0
  6
CONTINUOUS
 62
     7
 10
3272.3954702979831
 20
1308.8644072865541
 30
0.0
 11
3273.7154702979819
 21
1308.8644072865541
 31
0.0
  0
ARC
  5
EA2
  8
0
  6
CONTINUOUS
 62
     7
 10
3272.3954702979831
 20
1309.3644072865541
 30
0.0
 40
0.5
 50
90.0
 51
270.0
  0
LINE
  5
EA3
  8
0
  6
CONTINUOUS
 62
     7
 10
3272.3954702979831
 20
1309.8644072865541
 30
0.0
 11
3273.7154702979819
 21
1309.8644072865541
 31
0.0
  0
LINE
  5
EA4
  8
0
  6
CONTINUOUS
 62
     7
 10
3273.7154702979819
 20
1309.8644072865541
 30
0.0
 11
3273.7154702979819
 21
1321.3844072865541
 31
0.0
  0
LINE
  5
EA5
  8
0
  6
CONTINUOUS
 62
     7
 10
3272.3954702979831
 20
1321.3844072865541
 30
0.0
 11
3273.7154702979819
 21
1321.3844072865541
 31
0.0
  0
ARC
  5
EA6
  8
0
  6
CONTINUOUS
 62
     7
 10
3272.3954702979831
 20
1321.8844072865541
 30
0.0
 40
0.5
 50
90.0
 51
270.0
  0
LINE
  5
EA7
  8
0
  6
CONTINUOUS
 62
     7
 10
3272.3954702979831
 20
1322.3844072865541
 30
0.0
 11
3273.7154702979819
 21
1322.3844072865541
 31
0.0
  0
LINE
  5
EA8
  8
0
  6
CONTINUOUS
 62
     7
 10
3273.7154702979819
 20
1322.3844072865541
 30
0.0
 11
3273.7154702979819
 21
1333.904407286554
 31
0.0
  0
LINE
  5
EA9
  8
0
  6
CONTINUOUS
 62
     7
 10
3272.3954702979831
 20
1333.904407286554
 30
0.0
 11
3273.7154702979819
 21
1333.904407286554
 31
0.0
  0
ARC
  5
EAA
  8
0
  6
CONTINUOUS
 62
     7
 10
3272.3954702979831
 20
1334.404407286554
 30
0.0
 40
0.5
 50
90.0
 51
270.0
  0
LINE
  5
EAB
  8
0
  6
CONTINUOUS
 62
     7
 10
3272.3954702979831
 20
1334.904407286554
 30
0.0
 11
3273.7154702979819
 21
1334.904407286554
 31
0.0
  0
LINE
  5
EAC
  8
0
  6
CONTINUOUS
 62
     7
 10
3273.7154702979819
 20
1334.904407286554
 30
0.0
 11
3273.7154702979819
 21
1346.424407286554
 31
0.0
  0
LINE
  5
EAD
  8
0
  6
CONTINUOUS
 62
     7
 10
3272.3954702979831
 20
1346.424407286554
 30
0.0
 11
3273.7154702979819
 21
1346.424407286554
 31
0.0
  0
ARC
  5
EAE
  8
0
  6
CONTINUOUS
 62
     7
 10
3272.3954702979831
 20
1346.924407286554
 30
0.0
 40
0.5
 50
90.0
 51
270.0
  0
LINE
  5
EAF
  8
0
  6
CONTINUOUS
 62
     7
 10
3272.3954702979831
 20
1347.424407286554
 30
0.0
 11
3273.7154702979819
 21
1347.424407286554
 31
0.0
  0
LINE
  5
EB0
  8
0
  6
CONTINUOUS
 62
     7
 10
3273.7154702979819
 20
1347.424407286554
 30
0.0
 11
3273.7154702979819
 21
1358.944407286554
 31
0.0
  0
LINE
  5
EB1
  8
0
  6
CONTINUOUS
 62
     7
 10
3272.3954702979831
 20
1358.944407286554
 30
0.0
 11
3273.7154702979819
 21
1358.944407286554
 31
0.0
  0
ARC
  5
EB2
  8
0
  6
CONTINUOUS
 62
     7
 10
3272.3954702979831
 20
1359.444407286554
 30
0.0
 40
0.5
 50
90.0
 51
270.0
  0
LINE
  5
EB3
  8
0
  6
CONTINUOUS
 62
     7
 10
3272.3954702979831
 20
1359.944407286554
 30
0.0
 11
3273.7154702979819
 21
1359.944407286554
 31
0.0
  0
LINE
  5
EB4
  8
0
  6
CONTINUOUS
 62
     7
 10
3273.7154702979819
 20
1359.944407286554
 30
0.0
 11
3273.7154702979819
 21
1371.464407286554
 31
0.0
  0
LINE
  5
EB5
  8
0
  6
CONTINUOUS
 62
     7
 10
3272.3954702979831
 20
1371.464407286554
 30
0.0
 11
3273.7154702979819
 21
1371.464407286554
 31
0.0
  0
ARC
  5
EB6
  8
0
  6
CONTINUOUS
 62
     7
 10
3272.3954702979831
 20
1371.964407286554
 30
0.0
 40
0.5
 50
90.0
 51
270.0
  0
LINE
  5
EB7
  8
0
  6
CONTINUOUS
 62
     7
 10
3272.3954702979831
 20
1372.4644072865531
 30
0.0
 11
3273.7154702979819
 21
1372.4644072865531
 31
0.0
  0
LINE
  5
EB8
  8
0
  6
CONTINUOUS
 62
     7
 10
3273.7154702979819
 20
1372.4644072865531
 30
0.0
 11
3273.7154702979819
 21
1379.044407286553
 31
0.0
  0
LINE
  5
EB9
  8
0
  6
CONTINUOUS
 62
     7
 10
3273.7154702979819
 20
1379.044407286553
 30
0.0
 11
3272.5554383490821
 21
1383.9844072865531
 31
0.0
  0
LINE
  5
EBA
  8
0
  6
CONTINUOUS
 62
     7
 10
3270.9254702979829
 20
1383.9844072865531
 30
0.0
 11
3272.5554383490821
 21
1383.9844072865531
 31
0.0
  0
ARC
  5
EBB
  8
0
  6
CONTINUOUS
 62
     7
 10
3270.9254702979829
 20
1384.484407286554
 30
0.0
 40
0.5
 50
90.0
 51
270.0
  0
LINE
  5
EBC
  8
0
  6
CONTINUOUS
 62
     7
 10
3270.9254702979829
 20
1384.984407286554
 30
0.0
 11
3272.3206140679822
 21
1384.984407286554
 31
0.0
  0
LINE
  5
EBD
  8
0
  6
CONTINUOUS
 62
     7
 10
3272.3206140679822
 20
1384.984407286554
 30
0.0
 11
3269.6154383490821
 21
1396.5044072865539
 31
0.0
  0
LINE
  5
EBE
  8
0
  6
CONTINUOUS
 62
     7
 10
3267.9854702979828
 20
1396.5044072865539
 30
0.0
 11
3269.6154383490821
 21
1396.5044072865539
 31
0.0
  0
ARC
  5
EBF
  8
0
  6
CONTINUOUS
 62
     7
 10
3314.7366006658581
 20
1399.9710699301279
 30
0.0
 40
0.7351913151207157
 50
90.0
 51
270.0
  0
LINE
  5
EC0
  8
0
  6
CONTINUOUS
 62
     7
 10
3314.7366006658581
 20
1400.706261245228
 30
0.0
 11
3316.0765158042582
 21
1400.706261245228
 31
0.0
  0
LINE
  5
EC1
  8
0
  6
CONTINUOUS
 62
     7
 10
3316.0765158042582
 20
1400.706261245228
 30
0.0
 11
3314.447692789658
 21
1407.6426095932279
 31
0.0
  0
LINE
  5
EC2
  8
0
  6
CONTINUOUS
 62
     7
 10
3314.447692789658
 20
1407.6426095932279
 30
0.0
 11
3311.0016006658579
 21
1407.6426095932279
 31
0.0
  0
LINE
  5
EC3
  8
0
  6
CONTINUOUS
 62
     7
 10
3311.0016006658579
 20
1405.333367839128
 30
0.0
 11
3311.0016006658579
 21
1407.6426095932279
 31
0.0
  0
LINE
  5
EC4
  8
0
  6
CONTINUOUS
 62
     7
 10
3301.3516006658579
 20
1405.333367839128
 30
0.0
 11
3311.0016006658579
 21
1405.333367839128
 31
0.0
  0
LINE
  5
EC5
  8
0
  6
CONTINUOUS
 62
     7
 10
3301.3516006658579
 20
1405.333367839128
 30
0.0
 11
3301.3516006658579
 21
1328.6333678391279
 31
0.0
  0
LINE
  5
EC6
  8
0
  6
CONTINUOUS
 62
     7
 10
3298.651600665858
 20
1328.6333678391279
 30
0.0
 11
3301.3516006658579
 21
1328.6333678391279
 31
0.0
  0
LINE
  5
EC7
  8
0
  6
CONTINUOUS
 62
     7
 10
3298.651600665858
 20
1405.333367839128
 30
0.0
 11
3298.651600665858
 21
1328.6333678391279
 31
0.0
  0
LINE
  5
EC8
  8
0
  6
CONTINUOUS
 62
     7
 10
3289.0016006658579
 20
1405.333367839128
 30
0.0
 11
3298.651600665858
 21
1405.333367839128
 31
0.0
  0
LINE
  5
EC9
  8
0
  6
CONTINUOUS
 62
     7
 10
3289.0016006658579
 20
1405.333367839128
 30
0.0
 11
3289.0016006658579
 21
1407.6426095932279
 31
0.0
  0
LINE
  5
ECA
  8
0
  6
CONTINUOUS
 62
     7
 10
3285.5555085419569
 20
1407.6426095932279
 30
0.0
 11
3289.0016006658579
 21
1407.6426095932279
 31
0.0
  0
LINE
  5
ECB
  8
0
  6
CONTINUOUS
 62
     7
 10
3282.4014568958578
 20
1394.2110699301279
 30
0.0
 11
3285.5555085419569
 21
1407.6426095932279
 31
0.0
  0
LINE
  5
ECC
  8
0
  6
CONTINUOUS
 62
     7
 10
3283.796600665858
 20
1394.2110699301279
 30
0.0
 11
3282.4014568958578
 21
1394.2110699301279
 31
0.0
  0
ARC
  5
ECD
  8
0
  6
CONTINUOUS
 62
     7
 10
3283.796600665858
 20
1393.7110699301279
 30
0.0
 40
0.5
 50
270.0
 51
90.0
  0
LINE
  5
ECE
  8
0
  6
CONTINUOUS
 62
     7
 10
3283.796600665858
 20
1393.2110699301279
 30
0.0
 11
3282.1666326147579
 21
1393.2110699301279
 31
0.0
  0
LINE
  5
ECF
  8
0
  6
CONTINUOUS
 62
     7
 10
3279.4614568958582
 20
1381.6910699301279
 30
0.0
 11
3282.1666326147579
 21
1393.2110699301279
 31
0.0
  0
LINE
  5
ED0
  8
0
  6
CONTINUOUS
 62
     7
 10
3280.8566006658571
 20
1381.6910699301279
 30
0.0
 11
3279.4614568958582
 21
1381.6910699301279
 31
0.0
  0
ARC
  5
ED1
  8
0
  6
CONTINUOUS
 62
     7
 10
3280.8566006658571
 20
1381.1910699301279
 30
0.0
 40
0.5
 50
270.0
 51
90.0
  0
LINE
  5
ED2
  8
0
  6
CONTINUOUS
 62
     7
 10
3280.8566006658571
 20
1380.6910699301279
 30
0.0
 11
3279.2266326147578
 21
1380.6910699301279
 31
0.0
  0
LINE
  5
ED3
  8
0
  6
CONTINUOUS
 62
     7
 10
3278.8016006658581
 20
1378.881069930128
 30
0.0
 11
3279.2266326147578
 21
1380.6910699301279
 31
0.0
  0
LINE
  5
ED4
  8
0
  6
CONTINUOUS
 62
     7
 10
3278.8016006658581
 20
1369.1710699301279
 30
0.0
 11
3278.8016006658581
 21
1378.881069930128
 31
0.0
  0
LINE
  5
ED5
  8
0
  6
CONTINUOUS
 62
     7
 10
3280.1216006658578
 20
1369.1710699301279
 30
0.0
 11
3278.8016006658581
 21
1369.1710699301279
 31
0.0
  0
ARC
  5
ED6
  8
0
  6
CONTINUOUS
 62
     7
 10
3280.1216006658578
 20
1368.6710699301279
 30
0.0
 40
0.5
 50
270.0
 51
90.0
  0
LINE
  5
ED7
  8
0
  6
CONTINUOUS
 62
     7
 10
3280.1216006658578
 20
1368.1710699301279
 30
0.0
 11
3278.8016006658581
 21
1368.1710699301279
 31
0.0
  0
LINE
  5
ED8
  8
0
  6
CONTINUOUS
 62
     7
 10
3278.8016006658581
 20
1356.651069930128
 30
0.0
 11
3278.8016006658581
 21
1368.1710699301279
 31
0.0
  0
LINE
  5
ED9
  8
0
  6
CONTINUOUS
 62
     7
 10
3280.1216006658578
 20
1356.651069930128
 30
0.0
 11
3278.8016006658581
 21
1356.651069930128
 31
0.0
  0
ARC
  5
EDA
  8
0
  6
CONTINUOUS
 62
     7
 10
3280.1216006658578
 20
1356.151069930128
 30
0.0
 40
0.5
 50
270.0
 51
90.0
  0
LINE
  5
EDB
  8
0
  6
CONTINUOUS
 62
     7
 10
3280.1216006658578
 20
1355.651069930128
 30
0.0
 11
3278.8016006658581
 21
1355.651069930128
 31
0.0
  0
LINE
  5
EDC
  8
0
  6
CONTINUOUS
 62
     7
 10
3278.8016006658581
 20
1344.131069930128
 30
0.0
 11
3278.8016006658581
 21
1355.651069930128
 31
0.0
  0
LINE
  5
EDD
  8
0
  6
CONTINUOUS
 62
     7
 10
3280.1216006658578
 20
1344.131069930128
 30
0.0
 11
3278.8016006658581
 21
1344.131069930128
 31
0.0
  0
ARC
  5
EDE
  8
0
  6
CONTINUOUS
 62
     7
 10
3280.1216006658578
 20
1343.631069930128
 30
0.0
 40
0.5
 50
270.0
 51
90.0
  0
LINE
  5
EDF
  8
0
  6
CONTINUOUS
 62
     7
 10
3280.1216006658578
 20
1343.131069930128
 30
0.0
 11
3278.8016006658581
 21
1343.131069930128
 31
0.0
  0
LINE
  5
EE0
  8
0
  6
CONTINUOUS
 62
     7
 10
3278.8016006658581
 20
1331.611069930128
 30
0.0
 11
3278.8016006658581
 21
1343.131069930128
 31
0.0
  0
LINE
  5
EE1
  8
0
  6
CONTINUOUS
 62
     7
 10
3280.1216006658578
 20
1331.611069930128
 30
0.0
 11
3278.8016006658581
 21
1331.611069930128
 31
0.0
  0
ARC
  5
EE2
  8
0
  6
CONTINUOUS
 62
     7
 10
3280.1216006658578
 20
1331.111069930128
 30
0.0
 40
0.5
 50
270.0
 51
90.0
  0
LINE
  5
EE3
  8
0
  6
CONTINUOUS
 62
     7
 10
3280.1216006658578
 20
1330.611069930128
 30
0.0
 11
3278.8016006658581
 21
1330.611069930128
 31
0.0
  0
LINE
  5
EE4
  8
0
  6
CONTINUOUS
 62
     7
 10
3278.8016006658581
 20
1319.091069930128
 30
0.0
 11
3278.8016006658581
 21
1330.611069930128
 31
0.0
  0
LINE
  5
EE5
  8
0
  6
CONTINUOUS
 62
     7
 10
3280.1216006658578
 20
1319.091069930128
 30
0.0
 11
3278.8016006658581
 21
1319.091069930128
 31
0.0
  0
ARC
  5
EE6
  8
0
  6
CONTINUOUS
 62
     7
 10
3280.1216006658578
 20
1318.591069930128
 30
0.0
 40
0.4999999999999997
 50
270.0
 51
90.0
  0
LINE
  5
EE7
  8
0
  6
CONTINUOUS
 62
     7
 10
3280.1216006658578
 20
1318.091069930128
 30
0.0
 11
3278.8016006658581
 21
1318.091069930128
 31
0.0
  0
LINE
  5
EE8
  8
0
  6
CONTINUOUS
 62
     7
 10
3278.8016006658581
 20
1306.571069930128
 30
0.0
 11
3278.8016006658581
 21
1318.091069930128
 31
0.0
  0
LINE
  5
EE9
  8
0
  6
CONTINUOUS
 62
     7
 10
3280.1216006658578
 20
1306.571069930128
 30
0.0
 11
3278.8016006658581
 21
1306.571069930128
 31
0.0
  0
ARC
  5
EEA
  8
0
  6
CONTINUOUS
 62
     7
 10
3280.1216006658578
 20
1306.071069930128
 30
0.0
 40
0.5
 50
270.0
 51
90.0
  0
LINE
  5
EEB
  8
0
  6
CONTINUOUS
 62
     7
 10
3280.1216006658578
 20
1305.571069930128
 30
0.0
 11
3278.8016006658581
 21
1305.571069930128
 31
0.0
  0
LINE
  5
EEC
  8
0
  6
CONTINUOUS
 62
     7
 10
3278.8016006658581
 20
1294.0510699301281
 30
0.0
 11
3278.8016006658581
 21
1305.571069930128
 31
0.0
  0
LINE
  5
EED
  8
0
  6
CONTINUOUS
 62
     7
 10
3280.1216006658578
 20
1294.0510699301281
 30
0.0
 11
3278.8016006658581
 21
1294.0510699301281
 31
0.0
  0
ARC
  5
EEE
  8
0
  6
CONTINUOUS
 62
     7
 10
3280.1216006658578
 20
1293.5510699301281
 30
0.0
 40
0.5
 50
270.0
 51
90.0
  0
LINE
  5
EEF
  8
0
  6
CONTINUOUS
 62
     7
 10
3280.1216006658578
 20
1293.0510699301281
 30
0.0
 11
3278.8016006658581
 21
1293.0510699301281
 31
0.0
  0
LINE
  5
EF0
  8
0
  6
CONTINUOUS
 62
     7
 10
3278.8016006658581
 20
1281.5310699301281
 30
0.0
 11
3278.8016006658581
 21
1293.0510699301281
 31
0.0
  0
LINE
  5
EF1
  8
0
  6
CONTINUOUS
 62
     7
 10
3280.1216006658578
 20
1281.5310699301281
 30
0.0
 11
3278.8016006658581
 21
1281.5310699301281
 31
0.0
  0
ARC
  5
EF2
  8
0
  6
CONTINUOUS
 62
     7
 10
3280.1216006658578
 20
1281.0310699301281
 30
0.0
 40
0.5
 50
270.0
 51
90.0
  0
LINE
  5
EF3
  8
0
  6
CONTINUOUS
 62
     7
 10
3280.1216006658578
 20
1280.5310699301281
 30
0.0
 11
3278.8016006658581
 21
1280.5310699301281
 31
0.0
  0
LINE
  5
EF4
  8
0
  6
CONTINUOUS
 62
     7
 10
3278.8016006658581
 20
1269.0110699301281
 30
0.0
 11
3278.8016006658581
 21
1280.5310699301281
 31
0.0
  0
LINE
  5
EF5
  8
0
  6
CONTINUOUS
 62
     7
 10
3280.1216006658578
 20
1269.0110699301281
 30
0.0
 11
3278.8016006658581
 21
1269.0110699301281
 31
0.0
  0
ARC
  5
EF6
  8
0
  6
CONTINUOUS
 62
     7
 10
3280.1216006658578
 20
1268.5110699301281
 30
0.0
 40
0.5
 50
270.0
 51
90.0
  0
LINE
  5
EF7
  8
0
  6
CONTINUOUS
 62
     7
 10
3280.1216006658578
 20
1268.0110699301281
 30
0.0
 11
3278.8016006658581
 21
1268.0110699301281
 31
0.0
  0
LINE
  5
EF8
  8
0
  6
CONTINUOUS
 62
     7
 10
3278.8016006658581
 20
1256.4910699301281
 30
0.0
 11
3278.8016006658581
 21
1268.0110699301281
 31
0.0
  0
LINE
  5
EF9
  8
0
  6
CONTINUOUS
 62
     7
 10
3280.1216006658578
 20
1256.4910699301281
 30
0.0
 11
3278.8016006658581
 21
1256.4910699301281
 31
0.0
  0
ARC
  5
EFA
  8
0
  6
CONTINUOUS
 62
     7
 10
3280.1216006658578
 20
1255.9910699301281
 30
0.0
 40
0.5
 50
270.0
 51
90.0
  0
LINE
  5
EFB
  8
0
  6
CONTINUOUS
 62
     7
 10
3280.1216006658578
 20
1255.4910699301281
 30
0.0
 11
3278.8016006658581
 21
1255.4910699301281
 31
0.0
  0
LINE
  5
EFC
  8
0
  6
CONTINUOUS
 62
     7
 10
3278.8016006658581
 20
1243.9710699301279
 30
0.0
 11
3278.8016006658581
 21
1255.4910699301281
 31
0.0
  0
LINE
  5
EFD
  8
0
  6
CONTINUOUS
 62
     7
 10
3280.1216006658578
 20
1243.9710699301279
 30
0.0
 11
3278.8016006658581
 21
1243.9710699301279
 31
0.0
  0
ARC
  5
EFE
  8
0
  6
CONTINUOUS
 62
     7
 10
3280.1216006658578
 20
1243.4710699301279
 30
0.0
 40
0.5
 50
270.0
 51
90.0
  0
LINE
  5
EFF
  8
0
  6
CONTINUOUS
 62
     7
 10
3280.1216006658578
 20
1242.9710699301279
 30
0.0
 11
3278.8016006658581
 21
1242.9710699301279
 31
0.0
  0
LINE
  5
F00
  8
0
  6
CONTINUOUS
 62
     7
 10
3278.8016006658581
 20
1235.341069930128
 30
0.0
 11
3278.8016006658581
 21
1242.9710699301279
 31
0.0
  0
LINE
  5
F01
  8
0
  6
CONTINUOUS
 62
     7
 10
3278.8016006658581
 20
1235.341069930128
 30
0.0
 11
3289.0016006658579
 21
1235.341069930128
 31
0.0
  0
LINE
  5
F02
  8
0
  6
CONTINUOUS
 62
     7
 10
3289.0016006658579
 20
1238.141069930128
 30
0.0
 11
3289.0016006658579
 21
1235.341069930128
 31
0.0
  0
LINE
  5
F03
  8
0
  6
CONTINUOUS
 62
     7
 10
3311.0016006658579
 20
1238.141069930128
 30
0.0
 11
3289.0016006658579
 21
1238.141069930128
 31
0.0
  0
LINE
  5
F04
  8
0
  6
CONTINUOUS
 62
     7
 10
3311.0016006658579
 20
1238.141069930128
 30
0.0
 11
3311.0016006658579
 21
1235.341069930128
 31
0.0
  0
LINE
  5
F05
  8
0
  6
CONTINUOUS
 62
     7
 10
3311.0016006658579
 20
1235.341069930128
 30
0.0
 11
3321.2016006658582
 21
1235.341069930128
 31
0.0
  0
LINE
  5
F06
  8
0
  6
CONTINUOUS
 62
     7
 10
3321.2016006658582
 20
1235.341069930128
 30
0.0
 11
3321.2016006658582
 21
1248.995878615028
 31
0.0
  0
LINE
  5
F07
  8
0
  6
CONTINUOUS
 62
     7
 10
3319.8816006658581
 20
1248.995878615028
 30
0.0
 11
3321.2016006658582
 21
1248.995878615028
 31
0.0
  0
ARC
  5
F08
  8
0
  6
CONTINUOUS
 62
     7
 10
3319.8816006658581
 20
1249.7310699301279
 30
0.0
 40
0.7351913151207015
 50
90.0
 51
270.0
  0
LINE
  5
F09
  8
0
  6
CONTINUOUS
 62
     7
 10
3319.8816006658581
 20
1250.466261245228
 30
0.0
 11
3321.2016006658582
 21
1250.466261245228
 31
0.0
  0
LINE
  5
F0A
  8
0
  6
CONTINUOUS
 62
     7
 10
3321.2016006658582
 20
1250.466261245228
 30
0.0
 11
3321.2016006658582
 21
1261.515878615028
 31
0.0
  0
LINE
  5
F0B
  8
0
  6
CONTINUOUS
 62
     7
 10
3319.8816006658581
 20
1261.515878615028
 30
0.0
 11
3321.2016006658582
 21
1261.515878615028
 31
0.0
  0
ARC
  5
F0C
  8
0
  6
CONTINUOUS
 62
     7
 10
3319.8816006658581
 20
1262.2510699301281
 30
0.0
 40
0.7351913151207015
 50
90.0
 51
270.0
  0
LINE
  5
F0D
  8
0
  6
CONTINUOUS
 62
     7
 10
3319.8816006658581
 20
1262.986261245228
 30
0.0
 11
3321.2016006658582
 21
1262.986261245228
 31
0.0
  0
LINE
  5
F0E
  8
0
  6
CONTINUOUS
 62
     7
 10
3321.2016006658582
 20
1262.986261245228
 30
0.0
 11
3321.2016006658582
 21
1274.035878615028
 31
0.0
  0
LINE
  5
F0F
  8
0
  6
CONTINUOUS
 62
     7
 10
3319.8816006658581
 20
1274.035878615028
 30
0.0
 11
3321.2016006658582
 21
1274.035878615028
 31
0.0
  0
ARC
  5
F10
  8
0
  6
CONTINUOUS
 62
     7
 10
3319.8816006658581
 20
1274.7710699301281
 30
0.0
 40
0.7351913151207015
 50
90.0
 51
270.0
  0
LINE
  5
F11
  8
0
  6
CONTINUOUS
 62
     7
 10
3319.8816006658581
 20
1275.506261245228
 30
0.0
 11
3321.2016006658582
 21
1275.506261245228
 31
0.0
  0
LINE
  5
F12
  8
0
  6
CONTINUOUS
 62
     7
 10
3321.2016006658582
 20
1275.506261245228
 30
0.0
 11
3321.2016006658582
 21
1286.555878615028
 31
0.0
  0
LINE
  5
F13
  8
0
  6
CONTINUOUS
 62
     7
 10
3319.8816006658581
 20
1286.555878615028
 30
0.0
 11
3321.2016006658582
 21
1286.555878615028
 31
0.0
  0
ARC
  5
F14
  8
0
  6
CONTINUOUS
 62
     7
 10
3319.8816006658581
 20
1287.2910699301281
 30
0.0
 40
0.7351913151206944
 50
90.0
 51
270.0
  0
LINE
  5
F15
  8
0
  6
CONTINUOUS
 62
     7
 10
3319.8816006658581
 20
1288.0262612452279
 30
0.0
 11
3321.2016006658582
 21
1288.0262612452279
 31
0.0
  0
LINE
  5
F16
  8
0
  6
CONTINUOUS
 62
     7
 10
3321.2016006658582
 20
1288.0262612452279
 30
0.0
 11
3321.2016006658582
 21
1299.0758786150279
 31
0.0
  0
LINE
  5
F17
  8
0
  6
CONTINUOUS
 62
     7
 10
3319.8816006658581
 20
1299.0758786150279
 30
0.0
 11
3321.2016006658582
 21
1299.0758786150279
 31
0.0
  0
ARC
  5
F18
  8
0
  6
CONTINUOUS
 62
     7
 10
3319.8816006658581
 20
1299.811069930128
 30
0.0
 40
0.7351913151206979
 50
90.0
 51
270.0
  0
LINE
  5
F19
  8
0
  6
CONTINUOUS
 62
     7
 10
3319.8816006658581
 20
1300.5462612452279
 30
0.0
 11
3321.2016006658582
 21
1300.5462612452279
 31
0.0
  0
LINE
  5
F1A
  8
0
  6
CONTINUOUS
 62
     7
 10
3321.2016006658582
 20
1300.5462612452279
 30
0.0
 11
3321.2016006658582
 21
1311.5958786150279
 31
0.0
  0
LINE
  5
F1B
  8
0
  6
CONTINUOUS
 62
     7
 10
3319.8816006658581
 20
1311.5958786150279
 30
0.0
 11
3321.2016006658582
 21
1311.5958786150279
 31
0.0
  0
ARC
  5
F1C
  8
0
  6
CONTINUOUS
 62
     7
 10
3319.8816006658581
 20
1312.331069930128
 30
0.0
 40
0.7351913151206979
 50
90.0
 51
270.0
  0
LINE
  5
F1D
  8
0
  6
CONTINUOUS
 62
     7
 10
3319.8816006658581
 20
1313.0662612452279
 30
0.0
 11
3321.2016006658582
 21
1313.0662612452279
 31
0.0
  0
LINE
  5
F1E
  8
0
  6
CONTINUOUS
 62
     7
 10
3321.2016006658582
 20
1313.0662612452279
 30
0.0
 11
3321.2016006658582
 21
1324.1158786150279
 31
0.0
  0
LINE
  5
F1F
  8
0
  6
CONTINUOUS
 62
     7
 10
3319.8816006658581
 20
1324.1158786150279
 30
0.0
 11
3321.2016006658582
 21
1324.1158786150279
 31
0.0
  0
ARC
  5
F20
  8
0
  6
CONTINUOUS
 62
     7
 10
3319.8816006658581
 20
1324.851069930128
 30
0.0
 40
0.7351913151206971
 50
90.0
 51
270.0
  0
LINE
  5
F21
  8
0
  6
CONTINUOUS
 62
     7
 10
3319.8816006658581
 20
1325.5862612452279
 30
0.0
 11
3321.2016006658582
 21
1325.5862612452279
 31
0.0
  0
LINE
  5
F22
  8
0
  6
CONTINUOUS
 62
     7
 10
3321.2016006658582
 20
1325.5862612452279
 30
0.0
 11
3321.2016006658582
 21
1336.6358786150281
 31
0.0
  0
LINE
  5
F23
  8
0
  6
CONTINUOUS
 62
     7
 10
3319.8816006658581
 20
1336.6358786150281
 30
0.0
 11
3321.2016006658582
 21
1336.6358786150281
 31
0.0
  0
ARC
  5
F24
  8
0
  6
CONTINUOUS
 62
     7
 10
3319.8816006658581
 20
1337.371069930128
 30
0.0
 40
0.7351913151206962
 50
90.0
 51
270.0
  0
LINE
  5
F25
  8
0
  6
CONTINUOUS
 62
     7
 10
3319.8816006658581
 20
1338.1062612452281
 30
0.0
 11
3321.2016006658582
 21
1338.1062612452281
 31
0.0
  0
LINE
  5
F26
  8
0
  6
CONTINUOUS
 62
     7
 10
3321.2016006658582
 20
1338.1062612452281
 30
0.0
 11
3321.2016006658582
 21
1349.1558786150281
 31
0.0
  0
LINE
  5
F27
  8
0
  6
CONTINUOUS
 62
     7
 10
3319.8816006658581
 20
1349.1558786150281
 30
0.0
 11
3321.2016006658582
 21
1349.1558786150281
 31
0.0
  0
ARC
  5
F28
  8
0
  6
CONTINUOUS
 62
     7
 10
3319.8816006658581
 20
1349.891069930128
 30
0.0
 40
0.7351913151206979
 50
90.0
 51
270.0
  0
LINE
  5
F29
  8
0
  6
CONTINUOUS
 62
     7
 10
3319.8816006658581
 20
1350.6262612452281
 30
0.0
 11
3321.2016006658582
 21
1350.6262612452281
 31
0.0
  0
LINE
  5
F2A
  8
0
  6
CONTINUOUS
 62
     7
 10
3321.2016006658582
 20
1350.6262612452281
 30
0.0
 11
3321.2016006658582
 21
1361.6758786150281
 31
0.0
  0
LINE
  5
F2B
  8
0
  6
CONTINUOUS
 62
     7
 10
3319.8816006658581
 20
1361.6758786150281
 30
0.0
 11
3321.2016006658582
 21
1361.6758786150281
 31
0.0
  0
ARC
  5
F2C
  8
0
  6
CONTINUOUS
 62
     7
 10
3319.8816006658581
 20
1362.411069930128
 30
0.0
 40
0.7351913151206944
 50
90.0
 51
270.0
  0
LINE
  5
F2D
  8
0
  6
CONTINUOUS
 62
     7
 10
3319.8816006658581
 20
1363.1462612452281
 30
0.0
 11
3321.2016006658582
 21
1363.1462612452281
 31
0.0
  0
LINE
  5
F2E
  8
0
  6
CONTINUOUS
 62
     7
 10
3321.2016006658582
 20
1363.1462612452281
 30
0.0
 11
3321.2016006658582
 21
1374.1958786150281
 31
0.0
  0
LINE
  5
F2F
  8
0
  6
CONTINUOUS
 62
     7
 10
3319.8816006658581
 20
1374.1958786150281
 30
0.0
 11
3321.2016006658582
 21
1374.1958786150281
 31
0.0
  0
ARC
  5
F30
  8
0
  6
CONTINUOUS
 62
     7
 10
3319.8816006658581
 20
1374.9310699301279
 30
0.0
 40
0.7351913151206944
 50
90.0
 51
270.0
  0
LINE
  5
F31
  8
0
  6
CONTINUOUS
 62
     7
 10
3319.8816006658581
 20
1375.666261245228
 30
0.0
 11
3321.2016006658582
 21
1375.666261245228
 31
0.0
  0
LINE
  5
F32
  8
0
  6
CONTINUOUS
 62
     7
 10
3321.2016006658582
 20
1375.666261245228
 30
0.0
 11
3321.2016006658582
 21
1378.881069930128
 31
0.0
  0
LINE
  5
F33
  8
0
  6
CONTINUOUS
 62
     7
 10
3321.2016006658582
 20
1378.881069930128
 30
0.0
 11
3319.3617973484579
 21
1386.715878615028
 31
0.0
  0
LINE
  5
F34
  8
0
  6
CONTINUOUS
 62
     7
 10
3317.6766006658581
 20
1386.715878615028
 30
0.0
 11
3319.3617973484579
 21
1386.715878615028
 31
0.0
  0
ARC
  5
F35
  8
0
  6
CONTINUOUS
 62
     7
 10
3317.6766006658581
 20
1387.4510699301279
 30
0.0
 40
0.7351913151207015
 50
90.0
 51
270.0
  0
LINE
  5
F36
  8
0
  6
CONTINUOUS
 62
     7
 10
3317.6766006658581
 20
1388.186261245228
 30
0.0
 11
3319.0165158042569
 21
1388.186261245228
 31
0.0
  0
LINE
  5
F37
  8
0
  6
CONTINUOUS
 62
     7
 10
3319.0165158042569
 20
1388.186261245228
 30
0.0
 11
3316.4217973484569
 21
1399.235878615028
 31
0.0
  0
LINE
  5
F38
  8
0
  6
CONTINUOUS
 62
     7
 10
3314.7366006658581
 20
1399.235878615028
 30
0.0
 11
3316.4217973484569
 21
1399.235878615028
 31
0.0
  0
ARC
  5
F56
  8
0
  6
CONTINUOUS
 62
     7
 10
3284.2140594811431
 20
1429.3558087914359
 30
0.0
 40
26.0
 50
217.81924421850411
 51
232.180755781496
  0
ARC
  5
F57
  8
0
  6
CONTINUOUS
 62
     7
 10
3269.4979215842068
 20
1410.397030207381
 30
0.0
 40
1.999999999999998
 50
232.180755781496
 51
315.0
  0
LINE
  5
F58
  8
0
  6
CONTINUOUS
 62
     7
 10
3270.912135146581
 20
1408.9828166450079
 30
0.0
 11
3274.314564544532
 21
1412.3852460429589
 31
0.0
  0
ARC
  5
F59
  8
0
  6
CONTINUOUS
 62
     7
 10
3284.2140594811431
 20
1402.4857511063481
 30
0.0
 40
14.0
 50
45.000000000000021
 51
135.0
  0
LINE
  5
F5A
  8
0
  6
CONTINUOUS
 62
     7
 10
3294.113554417755
 20
1412.3852460429589
 30
0.0
 11
3297.5159838157069
 21
1408.9828166450079
 31
0.0
  0
ARC
  5
F5B
  8
0
  6
CONTINUOUS
 62
     7
 10
3298.9301973780798
 20
1410.397030207381
 30
0.0
 40
2.0
 50
225.0
 51
307.81924421849379
  0
ARC
  5
F5C
  8
0
  6
CONTINUOUS
 62
     7
 10
3284.2140594811431
 20
1429.3558087914359
 30
0.0
 40
26.0
 50
307.81924421849379
 51
322.18075578150621
  0
ARC
  5
F5D
  8
0
  6
CONTINUOUS
 62
     7
 10
3303.1728380651989
 20
1414.6396708944999
 30
0.0
 40
2.0
 50
322.18075578150621
 51
45.000000000000021
  0
LINE
  5
F5E
  8
0
  6
CONTINUOUS
 62
     7
 10
3304.5870516275718
 20
1416.053884456873
 30
0.0
 11
3301.1846222296208
 21
1419.4563138548251
 31
0.0
  0
ARC
  5
F5F
  8
0
  6
CONTINUOUS
 62
     7
 10
3311.0841171662319
 20
1429.3558087914359
 30
0.0
 40
14.0
 50
135.0
 51
225.0
  0
LINE
  5
F60
  8
0
  6
CONTINUOUS
 62
     7
 10
3301.1846222296208
 20
1439.2553037280479
 30
0.0
 11
3304.5870516275718
 21
1442.657733126
 31
0.0
  0
ARC
  5
F61
  8
0
  6
CONTINUOUS
 62
     7
 10
3303.1728380651989
 20
1444.0719466883729
 30
0.0
 40
1.9999999999999989
 50
315.0
 51
37.819244218504117
  0
ARC
  5
F62
  8
0
  6
CONTINUOUS
 62
     7
 10
3284.2140594811431
 20
1429.3558087914359
 30
0.0
 40
26.0
 50
37.819244218504117
 51
52.180755781495883
  0
ARC
  5
F63
  8
0
  6
CONTINUOUS
 62
     7
 10
3298.9301973780798
 20
1448.314587375492
 30
0.0
 40
2.0000000000000031
 50
52.180755781495883
 51
135.0
  0
LINE
  5
F64
  8
0
  6
CONTINUOUS
 62
     7
 10
3297.5159838157069
 20
1449.7288009378649
 30
0.0
 11
3294.113554417755
 21
1446.326371539913
 31
0.0
  0
ARC
  5
F65
  8
0
  6
CONTINUOUS
 62
     7
 10
3284.2140594811431
 20
1456.225866476525
 30
0.0
 40
14.0
 50
225.0
 51
315.0
  0
LINE
  5
F66
  8
0
  6
CONTINUOUS
 62
     7
 10
3274.314564544532
 20
1446.3263715399139
 30
0.0
 11
3270.912135146581
 21
1449.7288009378649
 31
0.0
  0
ARC
  5
F67
  8
0
  6
CONTINUOUS
 62
     7
 10
3269.4979215842068
 20
1448.314587375492
 30
0.0
 40
2.0
 50
45.000000000000021
 51
127.81924421849379
  0
ARC
  5
F68
  8
0
  6
CONTINUOUS
 62
     7
 10
3284.2140594811431
 20
1429.3558087914359
 30
0.0
 40
26.0
 50
127.81924421849379
 51
142.18075578150609
  0
ARC
  5
F69
  8
0
  6
CONTINUOUS
 62
     7
 10
3265.2552808970881
 20
1444.0719466883729
 30
0.0
 40
2.0000000000000031
 50
142.18075578150609
 51
225.0
  0
LINE
  5
F6A
  8
0
  6
CONTINUOUS
 62
     7
 10
3263.8410673347148
 20
1442.657733126
 30
0.0
 11
3267.2434967326672
 21
1439.2553037280479
 31
0.0
  0
ARC
  5
F6B
  8
0
  6
CONTINUOUS
 62
     7
 10
3257.3440017960552
 20
1429.3558087914371
 30
0.0
 40
14.0
 50
315.0
 51
45.000000000000021
  0
LINE
  5
F6C
  8
0
  6
CONTINUOUS
 62
     7
 10
3267.2434967326672
 20
1419.4563138548251
 30
0.0
 11
3263.8410673347148
 21
1416.053884456873
 31
0.0
  0
ARC
  5
F6D
  8
0
  6
CONTINUOUS
 62
     7
 10
3265.2552808970881
 20
1414.6396708944999
 30
0.0
 40
2.0
 50
135.0
 51
217.81924421850411
  0
CIRCLE
  5
F74
  8
0
  6
CONTINUOUS
 62
     7
 10
3272.9930337990058
 20
1515.5914507911809
 30
0.0
 40
11.0
  0
CIRCLE
  5
F76
  8
0
  6
CONTINUOUS
 62
     7
 10
3313.6746348112379
 20
1475.61054779031
 30
0.0
 40
11.0
  0
CIRCLE
  5
F78
  8
0
  6
CONTINUOUS
 62
     7
 10
3269.8929241637011
 20
1476.11082405605
 30
0.0
 40
11.0
  0
CIRCLE
  5
F7A
  8
0
  6
CONTINUOUS
 62
     7
 10
3248.6505884184348
 20
1420.4598139268051
 30
0.0
 40
11.0
  0
CIRCLE
  5
F7C
  8
0
  6
CONTINUOUS
 62
     7
 10
2905.716482303274
 20
1475.840782987264
 30
0.0
 40
11.0
  0
CIRCLE
  5
F7E
  8
0
  6
CONTINUOUS
 62
     7
 10
3311.7130257635972
 20
1429.544119231897
 30
0.0
 40
11.0
  0
CIRCLE
  5
F92
  8
0
  6
CONTINUOUS
 62
     7
 10
3284.9647341040568
 20
1456.8380733182539
 30
0.0
 40
11.0
  0
ENDSEC
  0
EOF
