  0
SECTION
  2
HEADER
  9
$ACADVER
  1
AC1021
  9
$ACADMAINTVER
 70
    25
  9
$DWGCODEPAGE
  3
ANSI_1257
  9
$INSBASE
 10
0.0
 20
0.0
 30
0.0
  9
$EXTMIN
 10
-294.8557
 20
-143.0416
 30
0.0
  9
$EXTMAX
 10
293.5284
 20
142.4492
 30
0.0
  9
$LIMMIN
 10
0.0
 20
0.0
  9
$LIMMAX
 10
12.0
 20
9.0
  9
$ORTHOMODE
 70
     0
  9
$REGENMODE
 70
     1
  9
$FILLMODE
 70
     1
  9
$QTEXTMODE
 70
     0
  9
$MIRRTEXT
 70
     1
  9
$LTSCALE
 40
1.0
  9
$ATTMODE
 70
     1
  9
$TEXTSIZE
 40
0.2
  9
$TRACEWID
 40
0.05
  9
$TEXTSTYLE
  7
Standard
  9
$CLAYER
  8
0
  9
$CELTYPE
  6
ByLayer
  9
$CECOLOR
 62
   256
  9
$CELTSCALE
 40
1.0
  9
$DISPSILH
 70
     0
  9
$DIMSCALE
 40
1.0
  9
$DIMASZ
 40
0.18
  9
$DIMEXO
 40
0.0625
  9
$DIMDLI
 40
0.38
  9
$DIMRND
 40
0.0
  9
$DIMDLE
 40
0.0
  9
$DIMEXE
 40
0.18
  9
$DIMTP
 40
0.0
  9
$DIMTM
 40
0.0
  9
$DIMTXT
 40
0.18
  9
$DIMCEN
 40
0.09
  9
$DIMTSZ
 40
0.0
  9
$DIMTOL
 70
     0
  9
$DIMLIM
 70
     0
  9
$DIMTIH
 70
     1
  9
$DIMTOH
 70
     1
  9
$DIMSE1
 70
     0
  9
$DIMSE2
 70
     0
  9
$DIMTAD
 70
     0
  9
$DIMZIN
 70
     0
  9
$DIMBLK
  1

  9
$DIMASO
 70
     1
  9
$DIMSHO
 70
     1
  9
$DIMPOST
  1

  9
$DIMAPOST
  1

  9
$DIMALT
 70
     0
  9
$DIMALTD
 70
     2
  9
$DIMALTF
 40
25.4
  9
$DIMLFAC
 40
1.0
  9
$DIMTOFL
 70
     0
  9
$DIMTVP
 40
0.0
  9
$DIMTIX
 70
     0
  9
$DIMSOXD
 70
     0
  9
$DIMSAH
 70
     0
  9
$DIMBLK1
  1

  9
$DIMBLK2
  1

  9
$DIMSTYLE
  2
Standard
  9
$DIMCLRD
 70
     0
  9
$DIMCLRE
 70
     0
  9
$DIMCLRT
 70
     0
  9
$DIMTFAC
 40
1.0
  9
$DIMGAP
 40
0.09
  9
$DIMJUST
 70
     0
  9
$DIMSD1
 70
     0
  9
$DIMSD2
 70
     0
  9
$DIMTOLJ
 70
     1
  9
$DIMTZIN
 70
     0
  9
$DIMALTZ
 70
     0
  9
$DIMALTTZ
 70
     0
  9
$DIMUPT
 70
     0
  9
$DIMDEC
 70
     4
  9
$DIMTDEC
 70
     4
  9
$DIMALTU
 70
     2
  9
$DIMALTTD
 70
     2
  9
$DIMTXSTY
  7
Standard
  9
$DIMAUNIT
 70
     0
  9
$DIMADEC
 70
     0
  9
$DIMALTRND
 40
0.0
  9
$DIMAZIN
 70
     0
  9
$DIMDSEP
 70
    46
  9
$DIMATFIT
 70
     3
  9
$DIMFRAC
 70
     0
  9
$DIMLDRBLK
  1

  9
$DIMLUNIT
 70
     2
  9
$DIMLWD
 70
    -2
  9
$DIMLWE
 70
    -2
  9
$DIMTMOVE
 70
     0
  9
$DIMFXL
 40
1.0
  9
$DIMFXLON
 70
     0
  9
$DIMJOGANG
 40
0.7853981633974483
  9
$DIMTFILL
 70
     0
  9
$DIMTFILLCLR
 70
     0
  9
$DIMARCSYM
 70
     0
  9
$DIMLTYPE
  6

  9
$DIMLTEX1
  6

  9
$DIMLTEX2
  6

  9
$LUNITS
 70
     2
  9
$LUPREC
 70
     4
  9
$SKETCHINC
 40
0.1
  9
$FILLETRAD
 40
0.5
  9
$AUNITS
 70
     0
  9
$AUPREC
 70
     0
  9
$MENU
  1
.
  9
$ELEVATION
 40
0.0
  9
$PELEVATION
 40
0.0
  9
$THICKNESS
 40
0.0
  9
$LIMCHECK
 70
     0
  9
$CHAMFERA
 40
0.5
  9
$CHAMFERB
 40
0.5
  9
$CHAMFERC
 40
1.0
  9
$CHAMFERD
 40
0.0
  9
$SKPOLY
 70
     0
  9
$TDCREATE
 40
2457006.672188854
  9
$TDUCREATE
 40
2457006.588855521
  9
$TDUPDATE
 40
2457006.672189039
  9
$TDUUPDATE
 40
2457006.588855706
  9
$TDINDWG
 40
0.0000000116
  9
$TDUSRTIMER
 40
0.0000000116
  9
$USRTIMER
 70
     1
  9
$ANGBASE
 50
0.0
  9
$ANGDIR
 70
     0
  9
$PDMODE
 70
     0
  9
$PDSIZE
 40
0.0
  9
$PLINEWID
 40
0.0
  9
$SPLFRAME
 70
     0
  9
$SPLINETYPE
 70
     6
  9
$SPLINESEGS
 70
     8
  9
$HANDSEED
  5
230
  9
$SURFTAB1
 70
     6
  9
$SURFTAB2
 70
     6
  9
$SURFTYPE
 70
     6
  9
$SURFU
 70
     6
  9
$SURFV
 70
     6
  9
$UCSBASE
  2

  9
$UCSNAME
  2

  9
$UCSORG
 10
0.0
 20
0.0
 30
0.0
  9
$UCSXDIR
 10
1.0
 20
0.0
 30
0.0
  9
$UCSYDIR
 10
0.0
 20
1.0
 30
0.0
  9
$UCSORTHOREF
  2

  9
$UCSORTHOVIEW
 70
     0
  9
$UCSORGTOP
 10
0.0
 20
0.0
 30
0.0
  9
$UCSORGBOTTOM
 10
0.0
 20
0.0
 30
0.0
  9
$UCSORGLEFT
 10
0.0
 20
0.0
 30
0.0
  9
$UCSORGRIGHT
 10
0.0
 20
0.0
 30
0.0
  9
$UCSORGFRONT
 10
0.0
 20
0.0
 30
0.0
  9
$UCSORGBACK
 10
0.0
 20
0.0
 30
0.0
  9
$PUCSBASE
  2

  9
$PUCSNAME
  2

  9
$PUCSORG
 10
0.0
 20
0.0
 30
0.0
  9
$PUCSXDIR
 10
1.0
 20
0.0
 30
0.0
  9
$PUCSYDIR
 10
0.0
 20
1.0
 30
0.0
  9
$PUCSORTHOREF
  2

  9
$PUCSORTHOVIEW
 70
     0
  9
$PUCSORGTOP
 10
0.0
 20
0.0
 30
0.0
  9
$PUCSORGBOTTOM
 10
0.0
 20
0.0
 30
0.0
  9
$PUCSORGLEFT
 10
0.0
 20
0.0
 30
0.0
  9
$PUCSORGRIGHT
 10
0.0
 20
0.0
 30
0.0
  9
$PUCSORGFRONT
 10
0.0
 20
0.0
 30
0.0
  9
$PUCSORGBACK
 10
0.0
 20
0.0
 30
0.0
  9
$USERI1
 70
     0
  9
$USERI2
 70
     0
  9
$USERI3
 70
     0
  9
$USERI4
 70
     0
  9
$USERI5
 70
     0
  9
$USERR1
 40
0.0
  9
$USERR2
 40
0.0
  9
$USERR3
 40
0.0
  9
$USERR4
 40
0.0
  9
$USERR5
 40
0.0
  9
$WORLDVIEW
 70
     1
  9
$SHADEDGE
 70
     3
  9
$SHADEDIF
 70
    70
  9
$TILEMODE
 70
     1
  9
$MAXACTVP
 70
    64
  9
$PINSBASE
 10
0.0
 20
0.0
 30
0.0
  9
$PLIMCHECK
 70
     0
  9
$PEXTMIN
 10
1.000000000000000E+20
 20
1.000000000000000E+20
 30
1.000000000000000E+20
  9
$PEXTMAX
 10
-1.000000000000000E+20
 20
-1.000000000000000E+20
 30
-1.000000000000000E+20
  9
$PLIMMIN
 10
0.0
 20
0.0
  9
$PLIMMAX
 10
12.0
 20
9.0
  9
$UNITMODE
 70
     0
  9
$VISRETAIN
 70
     1
  9
$PLINEGEN
 70
     0
  9
$PSLTSCALE
 70
     1
  9
$TREEDEPTH
 70
  3020
  9
$CMLSTYLE
  2
Standard
  9
$CMLJUST
 70
     0
  9
$CMLSCALE
 40
1.0
  9
$PROXYGRAPHICS
 70
     1
  9
$MEASUREMENT
 70
     0
  9
$CELWEIGHT
370
    -1
  9
$ENDCAPS
280
     0
  9
$JOINSTYLE
280
     0
  9
$LWDISPLAY
290
     0
  9
$INSUNITS
 70
     4
  9
$HYPERLINKBASE
  1

  9
$STYLESHEET
  1

  9
$XEDIT
290
     1
  9
$CEPSNTYPE
380
     0
  9
$PSTYLEMODE
290
     1
  9
$FINGERPRINTGUID
  2
{6B2049B8-935D-4316-8E50-C6B3D558F9C5}
  9
$VERSIONGUID
  2
{FAEB1C32-E019-11D5-929B-00C0DF256EC4}
  9
$EXTNAMES
290
     1
  9
$PSVPSCALE
 40
0.0
  9
$OLESTARTUP
290
     0
  9
$SORTENTS
280
   127
  9
$INDEXCTL
280
     0
  9
$HIDETEXT
280
     1
  9
$XCLIPFRAME
290
     0
  9
$HALOGAP
280
     0
  9
$OBSCOLOR
 70
   257
  9
$OBSLTYPE
280
     0
  9
$INTERSECTIONDISPLAY
280
     0
  9
$INTERSECTIONCOLOR
 70
   257
  9
$DIMASSOC
280
     2
  9
$PROJECTNAME
  1

  9
$CAMERADISPLAY
290
     0
  9
$LENSLENGTH
 40
50.0
  9
$CAMERAHEIGHT
 40
0.0
  9
$STEPSPERSEC
 40
2.0
  9
$STEPSIZE
 40
6.0
  9
$3DDWFPREC
 40
2.0
  9
$PSOLWIDTH
 40
0.25
  9
$PSOLHEIGHT
 40
4.0
  9
$LOFTANG1
 40
1.570796326794897
  9
$LOFTANG2
 40
1.570796326794897
  9
$LOFTMAG1
 40
0.0
  9
$LOFTMAG2
 40
0.0
  9
$LOFTPARAM
 70
     7
  9
$LOFTNORMALS
280
     1
  9
$LATITUDE
 40
37.795
  9
$LONGITUDE
 40
-122.394
  9
$NORTHDIRECTION
 40
0.0
  9
$TIMEZONE
 70
 -8000
  9
$LIGHTGLYPHDISPLAY
280
     1
  9
$TILEMODELIGHTSYNCH
280
     1
  9
$SOLIDHIST
280
     1
  9
$SHOWHIST
280
     1
  9
$DWFFRAME
280
     2
  9
$DGNFRAME
280
     2
  9
$REALWORLDSCALE
290
     1
  9
$INTERFERECOLOR
 62
   256
  9
$CSHADOW
280
     0
  9
$SHADOWPLANELOCATION
 40
0.0
  0
ENDSEC
  0
SECTION
  2
CLASSES
  0
CLASS
  1
ACDBDICTIONARYWDFLT
  2
AcDbDictionaryWithDefault
  3
ObjectDBX Classes
 90
        0
 91
        4
280
     0
281
     0
  0
CLASS
  1
VISUALSTYLE
  2
AcDbVisualStyle
  3
ObjectDBX Classes
 90
     4095
 91
        4
280
     0
281
     0
  0
CLASS
  1
MATERIAL
  2
AcDbMaterial
  3
ObjectDBX Classes
 90
     1153
 91
        4
280
     0
281
     0
  0
ENDSEC
  0
SECTION
  2
TABLES
  0
TABLE
  2
VPORT
  5
8
330
0
100
AcDbSymbolTable
 70
     1
  0
VPORT
  5
29
330
8
100
AcDbSymbolTableRecord
100
AcDbViewportTableRecord
  2
*Active
 70
     0
 10
0.0
 20
0.0
 11
1.0
 21
1.0
 12
10.42990654205607
 22
4.5
 13
0.0
 23
0.0
 14
0.5
 24
0.5
 15
0.5
 25
0.5
 16
0.0
 26
0.0
 36
1.0
 17
0.0
 27
0.0
 37
0.0
 40
9.0
 41
1.972972972850329
 42
50.0
 43
0.0
 44
0.0
 50
0.0
 51
0.0
 71
     0
 72
   100
 73
     1
 74
     3
 75
     0
 76
     0
 77
     0
 78
     0
281
     0
 65
     1
110
0.0
120
0.0
130
0.0
111
1.0
121
0.0
131
0.0
112
0.0
122
1.0
132
0.0
 79
     0
146
0.0
 60
     3
 61
     5
292
     1
282
     1
141
0.0
142
0.0
 63
   250
  0
ENDTAB
  0
TABLE
  2
LTYPE
  5
5
330
0
100
AcDbSymbolTable
 70
     1
  0
LTYPE
  5
14
330
5
100
AcDbSymbolTableRecord
100
AcDbLinetypeTableRecord
  2
ByBlock
 70
     0
  3

 72
    65
 73
     0
 40
0.0
  0
LTYPE
  5
15
330
5
100
AcDbSymbolTableRecord
100
AcDbLinetypeTableRecord
  2
ByLayer
 70
     0
  3

 72
    65
 73
     0
 40
0.0
  0
LTYPE
  5
16
330
5
100
AcDbSymbolTableRecord
100
AcDbLinetypeTableRecord
  2
Continuous
 70
     0
  3
Solid line
 72
    65
 73
     0
 40
0.0
  0
ENDTAB
  0
TABLE
  2
LAYER
  5
2
330
0
100
AcDbSymbolTable
 70
     2
  0
LAYER
  5
10
330
2
100
AcDbSymbolTableRecord
100
AcDbLayerTableRecord
  2
0
 70
     0
 62
     7
  6
Continuous
370
    -3
390
F
347
3E
  0
LAYER
  5
40
330
2
100
AcDbSymbolTableRecord
100
AcDbLayerTableRecord
  2
Layer 1
 70
     0
 62
     7
  6
Continuous
370
    -3
390
F
347
3E
  0
ENDTAB
  0
TABLE
  2
STYLE
  5
3
330
0
100
AcDbSymbolTable
 70
     1
  0
STYLE
  5
11
330
3
100
AcDbSymbolTableRecord
100
AcDbTextStyleTableRecord
  2
Standard
 70
     0
 40
0.0
 41
1.0
 50
0.0
 71
     0
 42
0.2
  3
txt
  4

  0
ENDTAB
  0
TABLE
  2
VIEW
  5
6
330
0
100
AcDbSymbolTable
 70
     0
  0
ENDTAB
  0
TABLE
  2
UCS
  5
7
330
0
100
AcDbSymbolTable
 70
     0
  0
ENDTAB
  0
TABLE
  2
APPID
  5
9
330
0
100
AcDbSymbolTable
 70
     2
  0
APPID
  5
12
330
9
100
AcDbSymbolTableRecord
100
AcDbRegAppTableRecord
  2
ACAD
 70
     0
  0
APPID
  5
3F
330
9
100
AcDbSymbolTableRecord
100
AcDbRegAppTableRecord
  2
ODA
 70
     0
  0
ENDTAB
  0
TABLE
  2
DIMSTYLE
  5
A
330
0
100
AcDbSymbolTable
 70
     1
100
AcDbDimStyleTable
  0
DIMSTYLE
105
27
330
A
100
AcDbSymbolTableRecord
100
AcDbDimStyleTableRecord
  2
Standard
 70
     0
178
     0
340
11
  0
ENDTAB
  0
TABLE
  2
BLOCK_RECORD
  5
1
330
0
100
AcDbSymbolTable
 70
     1
  0
BLOCK_RECORD
  5
1F
330
1
100
AcDbSymbolTableRecord
100
AcDbBlockTableRecord
  2
*Model_Space
340
22
 70
     0
280
     1
281
     0
  0
BLOCK_RECORD
  5
1B
330
1
100
AcDbSymbolTableRecord
100
AcDbBlockTableRecord
  2
*Paper_Space
340
1E
 70
     0
280
     1
281
     0
  0
BLOCK_RECORD
  5
23
330
1
100
AcDbSymbolTableRecord
100
AcDbBlockTableRecord
  2
*Paper_Space0
340
26
 70
     0
280
     1
281
     0
  0
ENDTAB
  0
ENDSEC
  0
SECTION
  2
BLOCKS
  0
BLOCK
  5
20
330
1F
100
AcDbEntity
  8
0
100
AcDbBlockBegin
  2
*Model_Space
 70
     0
 10
0.0
 20
0.0
 30
0.0
  3
*Model_Space
  1

  0
ENDBLK
  5
21
330
1F
100
AcDbEntity
  8
0
100
AcDbBlockEnd
  0
BLOCK
  5
1C
330
1B
100
AcDbEntity
 67
     1
  8
0
100
AcDbBlockBegin
  2
*Paper_Space
 70
     0
 10
0.0
 20
0.0
 30
0.0
  3
*Paper_Space
  1

  0
ENDBLK
  5
1D
330
1B
100
AcDbEntity
 67
     1
  8
0
100
AcDbBlockEnd
  0
BLOCK
  5
24
330
23
100
AcDbEntity
  8
0
100
AcDbBlockBegin
  2
*Paper_Space0
 70
     0
 10
0.0
 20
0.0
 30
0.0
  3
*Paper_Space0
  1

  0
ENDBLK
  5
25
330
23
100
AcDbEntity
  8
0
100
AcDbBlockEnd
  0
ENDSEC
  0
SECTION
  2
ENTITIES
  0
SPLINE
  5
41
330
1F
100
AcDbEntity
  8
Layer 1
370
    15
100
AcDbSpline
210
0.0
220
0.0
230
1.0
 70
     8
 71
     3
 72
     8
 73
     4
 74
     0
 42
0.0000000001
 43
0.0000000001
 12
1.0
 22
0.0
 32
0.0
 13
1.0
 23
0.0
 33
0.0
 40
0.0
 40
0.0
 40
0.0
 40
0.0
 40
1.0
 40
1.0
 40
1.0
 40
1.0
 10
-281.534
 20
-140.9193
 30
0.0
 10
-281.3336
 20
-141.8352
 30
0.0
 10
-280.5237
 20
-142.4888
 30
0.0
 10
-279.5861
 20
-142.4916
 30
0.0
  0
SPLINE
  5
42
330
1F
100
AcDbEntity
  8
Layer 1
370
    15
100
AcDbSpline
210
0.0
220
0.0
230
1.0
 70
    24
 71
     3
 72
     8
 73
     4
 74
     0
 42
0.0000000001
 43
0.0000000001
 12
1.0
 22
0.0
 32
0.0
 13
1.0
 23
0.0
 33
0.0
 40
0.0
 40
0.0
 40
0.0
 40
0.0
 40
1.0
 40
1.0
 40
1.0
 40
1.0
 10
-279.5861
 20
-142.4916
 30
0.0
 10
-279.5861
 20
-142.4916
 30
0.0
 10
-278.2204
 20
-142.4955
 30
0.0
 10
-278.2204
 20
-142.4955
 30
0.0
  0
SPLINE
  5
43
330
1F
100
AcDbEntity
  8
Layer 1
370
    15
100
AcDbSpline
210
0.0
220
0.0
230
1.0
 70
    24
 71
     3
 72
     8
 73
     4
 74
     0
 42
0.0000000001
 43
0.0000000001
 12
1.0
 22
0.0
 32
0.0
 13
1.0
 23
0.0
 33
0.0
 40
0.0
 40
0.0
 40
0.0
 40
0.0
 40
1.0
 40
1.0
 40
1.0
 40
1.0
 10
-278.2204
 20
-142.4955
 30
0.0
 10
-278.2204
 20
-142.4955
 30
0.0
 10
-278.6725
 20
-140.4297
 30
0.0
 10
-278.6725
 20
-140.4297
 30
0.0
  0
SPLINE
  5
44
330
1F
100
AcDbEntity
  8
Layer 1
370
    15
100
AcDbSpline
210
0.0
220
0.0
230
1.0
 70
     8
 71
     3
 72
    12
 73
     8
 74
     0
 42
0.0000000001
 43
0.0000000001
 12
1.0
 22
0.0
 32
0.0
 13
1.0
 23
0.0
 33
0.0
 40
0.0
 40
0.0
 40
0.0
 40
0.0
 40
0.3333333333333333
 40
0.3333333333333333
 40
0.3333333333333333
 40
0.3333333333333333
 40
1.0
 40
1.0
 40
1.0
 40
1.0
 10
-277.5003
 20
-140.1731
 30
0.0
 10
-277.5712
 20
-139.8494
 30
0.0
 10
-277.891
 20
-139.6444
 30
0.0
 10
-278.2147
 20
-139.7153
 30
0.0
 10
-278.2147
 20
-139.7153
 30
0.0
 10
-278.5385
 20
-139.7861
 30
0.0
 10
-278.7434
 20
-140.1059
 30
0.0
 10
-278.6725
 20
-140.4297
 30
0.0
  0
SPLINE
  5
45
330
1F
100
AcDbEntity
  8
Layer 1
370
    15
100
AcDbSpline
210
0.0
220
0.0
230
1.0
 70
    24
 71
     3
 72
     8
 73
     4
 74
     0
 42
0.0000000001
 43
0.0000000001
 12
1.0
 22
0.0
 32
0.0
 13
1.0
 23
0.0
 33
0.0
 40
0.0
 40
0.0
 40
0.0
 40
0.0
 40
1.0
 40
1.0
 40
1.0
 40
1.0
 10
-277.5003
 20
-140.1731
 30
0.0
 10
-277.5003
 20
-140.1731
 30
0.0
 10
-276.9912
 20
-142.499
 30
0.0
 10
-276.9912
 20
-142.499
 30
0.0
  0
SPLINE
  5
46
330
1F
100
AcDbEntity
  8
Layer 1
370
    15
100
AcDbSpline
210
0.0
220
0.0
230
1.0
 70
    24
 71
     3
 72
     8
 73
     4
 74
     0
 42
0.0000000001
 43
0.0000000001
 12
1.0
 22
0.0
 32
0.0
 13
1.0
 23
0.0
 33
0.0
 40
0.0
 40
0.0
 40
0.0
 40
0.0
 40
1.0
 40
1.0
 40
1.0
 40
1.0
 10
-276.9912
 20
-142.499
 30
0.0
 10
-276.9912
 20
-142.499
 30
0.0
 10
-264.9041
 20
-142.534
 30
0.0
 10
-264.9041
 20
-142.534
 30
0.0
  0
SPLINE
  5
47
330
1F
100
AcDbEntity
  8
Layer 1
370
    15
100
AcDbSpline
210
0.0
220
0.0
230
1.0
 70
    24
 71
     3
 72
     8
 73
     4
 74
     0
 42
0.0000000001
 43
0.0000000001
 12
1.0
 22
0.0
 32
0.0
 13
1.0
 23
0.0
 33
0.0
 40
0.0
 40
0.0
 40
0.0
 40
0.0
 40
1.0
 40
1.0
 40
1.0
 40
1.0
 10
-264.9041
 20
-142.534
 30
0.0
 10
-264.9041
 20
-142.534
 30
0.0
 10
-265.3482
 20
-140.5053
 30
0.0
 10
-265.3482
 20
-140.5053
 30
0.0
  0
SPLINE
  5
48
330
1F
100
AcDbEntity
  8
Layer 1
370
    15
100
AcDbSpline
210
0.0
220
0.0
230
1.0
 70
     8
 71
     3
 72
    12
 73
     8
 74
     0
 42
0.0000000001
 43
0.0000000001
 12
1.0
 22
0.0
 32
0.0
 13
1.0
 23
0.0
 33
0.0
 40
0.0
 40
0.0
 40
0.0
 40
0.0
 40
0.3333333333333333
 40
0.3333333333333333
 40
0.3333333333333333
 40
0.3333333333333333
 40
1.0
 40
1.0
 40
1.0
 40
1.0
 10
-264.176
 20
-140.2487
 30
0.0
 10
-264.2468
 20
-139.9251
 30
0.0
 10
-264.5666
 20
-139.72
 30
0.0
 10
-264.8904
 20
-139.7909
 30
0.0
 10
-264.8904
 20
-139.7909
 30
0.0
 10
-265.2141
 20
-139.8617
 30
0.0
 10
-265.419
 20
-140.1817
 30
0.0
 10
-265.3482
 20
-140.5053
 30
0.0
  0
SPLINE
  5
49
330
1F
100
AcDbEntity
  8
Layer 1
370
    15
100
AcDbSpline
210
0.0
220
0.0
230
1.0
 70
    24
 71
     3
 72
     8
 73
     4
 74
     0
 42
0.0000000001
 43
0.0000000001
 12
1.0
 22
0.0
 32
0.0
 13
1.0
 23
0.0
 33
0.0
 40
0.0
 40
0.0
 40
0.0
 40
0.0
 40
1.0
 40
1.0
 40
1.0
 40
1.0
 10
-264.176
 20
-140.2487
 30
0.0
 10
-264.176
 20
-140.2487
 30
0.0
 10
-263.6749
 20
-142.5375
 30
0.0
 10
-263.6749
 20
-142.5375
 30
0.0
  0
SPLINE
  5
4A
330
1F
100
AcDbEntity
  8
Layer 1
370
    15
100
AcDbSpline
210
0.0
220
0.0
230
1.0
 70
    24
 71
     3
 72
     8
 73
     4
 74
     0
 42
0.0000000001
 43
0.0000000001
 12
1.0
 22
0.0
 32
0.0
 13
1.0
 23
0.0
 33
0.0
 40
0.0
 40
0.0
 40
0.0
 40
0.0
 40
1.0
 40
1.0
 40
1.0
 40
1.0
 10
-263.6749
 20
-142.5375
 30
0.0
 10
-263.6749
 20
-142.5375
 30
0.0
 10
-251.5879
 20
-142.5724
 30
0.0
 10
-251.5879
 20
-142.5724
 30
0.0
  0
SPLINE
  5
4B
330
1F
100
AcDbEntity
  8
Layer 1
370
    15
100
AcDbSpline
210
0.0
220
0.0
230
1.0
 70
    24
 71
     3
 72
     8
 73
     4
 74
     0
 42
0.0000000001
 43
0.0000000001
 12
1.0
 22
0.0
 32
0.0
 13
1.0
 23
0.0
 33
0.0
 40
0.0
 40
0.0
 40
0.0
 40
0.0
 40
1.0
 40
1.0
 40
1.0
 40
1.0
 10
-251.5879
 20
-142.5724
 30
0.0
 10
-251.5879
 20
-142.5724
 30
0.0
 10
-252.0238
 20
-140.581
 30
0.0
 10
-252.0238
 20
-140.581
 30
0.0
  0
SPLINE
  5
4C
330
1F
100
AcDbEntity
  8
Layer 1
370
    15
100
AcDbSpline
210
0.0
220
0.0
230
1.0
 70
     8
 71
     3
 72
    12
 73
     8
 74
     0
 42
0.0000000001
 43
0.0000000001
 12
1.0
 22
0.0
 32
0.0
 13
1.0
 23
0.0
 33
0.0
 40
0.0
 40
0.0
 40
0.0
 40
0.0
 40
0.3333333333333333
 40
0.3333333333333333
 40
0.3333333333333333
 40
0.3333333333333333
 40
1.0
 40
1.0
 40
1.0
 40
1.0
 10
-250.8516
 20
-140.3244
 30
0.0
 10
-250.9224
 20
-140.0007
 30
0.0
 10
-251.2423
 20
-139.7957
 30
0.0
 10
-251.566
 20
-139.8666
 30
0.0
 10
-251.566
 20
-139.8666
 30
0.0
 10
-251.8897
 20
-139.9375
 30
0.0
 10
-252.0947
 20
-140.2573
 30
0.0
 10
-252.0238
 20
-140.581
 30
0.0
  0
SPLINE
  5
4D
330
1F
100
AcDbEntity
  8
Layer 1
370
    15
100
AcDbSpline
210
0.0
220
0.0
230
1.0
 70
    24
 71
     3
 72
     8
 73
     4
 74
     0
 42
0.0000000001
 43
0.0000000001
 12
1.0
 22
0.0
 32
0.0
 13
1.0
 23
0.0
 33
0.0
 40
0.0
 40
0.0
 40
0.0
 40
0.0
 40
1.0
 40
1.0
 40
1.0
 40
1.0
 10
-250.8516
 20
-140.3244
 30
0.0
 10
-250.8516
 20
-140.3244
 30
0.0
 10
-250.3588
 20
-142.5759
 30
0.0
 10
-250.3588
 20
-142.5759
 30
0.0
  0
SPLINE
  5
4E
330
1F
100
AcDbEntity
  8
Layer 1
370
    15
100
AcDbSpline
210
0.0
220
0.0
230
1.0
 70
    24
 71
     3
 72
     8
 73
     4
 74
     0
 42
0.0000000001
 43
0.0000000001
 12
1.0
 22
0.0
 32
0.0
 13
1.0
 23
0.0
 33
0.0
 40
0.0
 40
0.0
 40
0.0
 40
0.0
 40
1.0
 40
1.0
 40
1.0
 40
1.0
 10
-250.3588
 20
-142.5759
 30
0.0
 10
-250.3588
 20
-142.5759
 30
0.0
 10
-238.2717
 20
-142.6108
 30
0.0
 10
-238.2717
 20
-142.6108
 30
0.0
  0
SPLINE
  5
4F
330
1F
100
AcDbEntity
  8
Layer 1
370
    15
100
AcDbSpline
210
0.0
220
0.0
230
1.0
 70
    24
 71
     3
 72
     8
 73
     4
 74
     0
 42
0.0000000001
 43
0.0000000001
 12
1.0
 22
0.0
 32
0.0
 13
1.0
 23
0.0
 33
0.0
 40
0.0
 40
0.0
 40
0.0
 40
0.0
 40
1.0
 40
1.0
 40
1.0
 40
1.0
 10
-238.2717
 20
-142.6108
 30
0.0
 10
-238.2717
 20
-142.6108
 30
0.0
 10
-238.6995
 20
-140.6567
 30
0.0
 10
-238.6995
 20
-140.6567
 30
0.0
  0
SPLINE
  5
50
330
1F
100
AcDbEntity
  8
Layer 1
370
    15
100
AcDbSpline
210
0.0
220
0.0
230
1.0
 70
     8
 71
     3
 72
    12
 73
     8
 74
     0
 42
0.0000000001
 43
0.0000000001
 12
1.0
 22
0.0
 32
0.0
 13
1.0
 23
0.0
 33
0.0
 40
0.0
 40
0.0
 40
0.0
 40
0.0
 40
0.3333333333333333
 40
0.3333333333333333
 40
0.3333333333333333
 40
0.3333333333333333
 40
1.0
 40
1.0
 40
1.0
 40
1.0
 10
-237.5272
 20
-140.4001
 30
0.0
 10
-237.5981
 20
-140.0764
 30
0.0
 10
-237.9179
 20
-139.8715
 30
0.0
 10
-238.2416
 20
-139.9423
 30
0.0
 10
-238.2416
 20
-139.9423
 30
0.0
 10
-238.5654
 20
-140.0132
 30
0.0
 10
-238.7703
 20
-140.333
 30
0.0
 10
-238.6995
 20
-140.6567
 30
0.0
  0
SPLINE
  5
51
330
1F
100
AcDbEntity
  8
Layer 1
370
    15
100
AcDbSpline
210
0.0
220
0.0
230
1.0
 70
    24
 71
     3
 72
     8
 73
     4
 74
     0
 42
0.0000000001
 43
0.0000000001
 12
1.0
 22
0.0
 32
0.0
 13
1.0
 23
0.0
 33
0.0
 40
0.0
 40
0.0
 40
0.0
 40
0.0
 40
1.0
 40
1.0
 40
1.0
 40
1.0
 10
-237.5272
 20
-140.4001
 30
0.0
 10
-237.5272
 20
-140.4001
 30
0.0
 10
-237.0426
 20
-142.6143
 30
0.0
 10
-237.0426
 20
-142.6143
 30
0.0
  0
SPLINE
  5
52
330
1F
100
AcDbEntity
  8
Layer 1
370
    15
100
AcDbSpline
210
0.0
220
0.0
230
1.0
 70
    24
 71
     3
 72
     8
 73
     4
 74
     0
 42
0.0000000001
 43
0.0000000001
 12
1.0
 22
0.0
 32
0.0
 13
1.0
 23
0.0
 33
0.0
 40
0.0
 40
0.0
 40
0.0
 40
0.0
 40
1.0
 40
1.0
 40
1.0
 40
1.0
 10
-237.0426
 20
-142.6143
 30
0.0
 10
-237.0426
 20
-142.6143
 30
0.0
 10
-224.9555
 20
-142.6493
 30
0.0
 10
-224.9555
 20
-142.6493
 30
0.0
  0
SPLINE
  5
53
330
1F
100
AcDbEntity
  8
Layer 1
370
    15
100
AcDbSpline
210
0.0
220
0.0
230
1.0
 70
    24
 71
     3
 72
     8
 73
     4
 74
     0
 42
0.0000000001
 43
0.0000000001
 12
1.0
 22
0.0
 32
0.0
 13
1.0
 23
0.0
 33
0.0
 40
0.0
 40
0.0
 40
0.0
 40
0.0
 40
1.0
 40
1.0
 40
1.0
 40
1.0
 10
-224.9555
 20
-142.6493
 30
0.0
 10
-224.9555
 20
-142.6493
 30
0.0
 10
-225.3751
 20
-140.7325
 30
0.0
 10
-225.3751
 20
-140.7325
 30
0.0
  0
SPLINE
  5
54
330
1F
100
AcDbEntity
  8
Layer 1
370
    15
100
AcDbSpline
210
0.0
220
0.0
230
1.0
 70
     8
 71
     3
 72
    12
 73
     8
 74
     0
 42
0.0000000001
 43
0.0000000001
 12
1.0
 22
0.0
 32
0.0
 13
1.0
 23
0.0
 33
0.0
 40
0.0
 40
0.0
 40
0.0
 40
0.0
 40
0.3333333333333333
 40
0.3333333333333333
 40
0.3333333333333333
 40
0.3333333333333333
 40
1.0
 40
1.0
 40
1.0
 40
1.0
 10
-224.2028
 20
-140.4759
 30
0.0
 10
-224.2737
 20
-140.1521
 30
0.0
 10
-224.5935
 20
-139.9472
 30
0.0
 10
-224.9173
 20
-140.018
 30
0.0
 10
-224.9173
 20
-140.018
 30
0.0
 10
-225.241
 20
-140.0889
 30
0.0
 10
-225.446
 20
-140.4087
 30
0.0
 10
-225.3751
 20
-140.7325
 30
0.0
  0
SPLINE
  5
55
330
1F
100
AcDbEntity
  8
Layer 1
370
    15
100
AcDbSpline
210
0.0
220
0.0
230
1.0
 70
    24
 71
     3
 72
     8
 73
     4
 74
     0
 42
0.0000000001
 43
0.0000000001
 12
1.0
 22
0.0
 32
0.0
 13
1.0
 23
0.0
 33
0.0
 40
0.0
 40
0.0
 40
0.0
 40
0.0
 40
1.0
 40
1.0
 40
1.0
 40
1.0
 10
-224.2028
 20
-140.4759
 30
0.0
 10
-224.2028
 20
-140.4759
 30
0.0
 10
-223.7263
 20
-142.6528
 30
0.0
 10
-223.7263
 20
-142.6528
 30
0.0
  0
SPLINE
  5
56
330
1F
100
AcDbEntity
  8
Layer 1
370
    15
100
AcDbSpline
210
0.0
220
0.0
230
1.0
 70
    24
 71
     3
 72
     8
 73
     4
 74
     0
 42
0.0000000001
 43
0.0000000001
 12
1.0
 22
0.0
 32
0.0
 13
1.0
 23
0.0
 33
0.0
 40
0.0
 40
0.0
 40
0.0
 40
0.0
 40
1.0
 40
1.0
 40
1.0
 40
1.0
 10
-223.7263
 20
-142.6528
 30
0.0
 10
-223.7263
 20
-142.6528
 30
0.0
 10
-211.6393
 20
-142.6877
 30
0.0
 10
-211.6393
 20
-142.6877
 30
0.0
  0
SPLINE
  5
57
330
1F
100
AcDbEntity
  8
Layer 1
370
    15
100
AcDbSpline
210
0.0
220
0.0
230
1.0
 70
    24
 71
     3
 72
     8
 73
     4
 74
     0
 42
0.0000000001
 43
0.0000000001
 12
1.0
 22
0.0
 32
0.0
 13
1.0
 23
0.0
 33
0.0
 40
0.0
 40
0.0
 40
0.0
 40
0.0
 40
1.0
 40
1.0
 40
1.0
 40
1.0
 10
-211.6393
 20
-142.6877
 30
0.0
 10
-211.6393
 20
-142.6877
 30
0.0
 10
-212.0507
 20
-140.8081
 30
0.0
 10
-212.0507
 20
-140.8081
 30
0.0
  0
SPLINE
  5
58
330
1F
100
AcDbEntity
  8
Layer 1
370
    15
100
AcDbSpline
210
0.0
220
0.0
230
1.0
 70
     8
 71
     3
 72
    12
 73
     8
 74
     0
 42
0.0000000001
 43
0.0000000001
 12
1.0
 22
0.0
 32
0.0
 13
1.0
 23
0.0
 33
0.0
 40
0.0
 40
0.0
 40
0.0
 40
0.0
 40
0.3333333333333333
 40
0.3333333333333333
 40
0.3333333333333333
 40
0.3333333333333333
 40
1.0
 40
1.0
 40
1.0
 40
1.0
 10
-210.8785
 20
-140.5515
 30
0.0
 10
-210.9493
 20
-140.2278
 30
0.0
 10
-211.2692
 20
-140.0228
 30
0.0
 10
-211.5929
 20
-140.0937
 30
0.0
 10
-211.5929
 20
-140.0937
 30
0.0
 10
-211.9167
 20
-140.1645
 30
0.0
 10
-212.1216
 20
-140.4844
 30
0.0
 10
-212.0507
 20
-140.8081
 30
0.0
  0
SPLINE
  5
59
330
1F
100
AcDbEntity
  8
Layer 1
370
    15
100
AcDbSpline
210
0.0
220
0.0
230
1.0
 70
    24
 71
     3
 72
     8
 73
     4
 74
     0
 42
0.0000000001
 43
0.0000000001
 12
1.0
 22
0.0
 32
0.0
 13
1.0
 23
0.0
 33
0.0
 40
0.0
 40
0.0
 40
0.0
 40
0.0
 40
1.0
 40
1.0
 40
1.0
 40
1.0
 10
-210.8785
 20
-140.5515
 30
0.0
 10
-210.8785
 20
-140.5515
 30
0.0
 10
-210.4101
 20
-142.6912
 30
0.0
 10
-210.4101
 20
-142.6912
 30
0.0
  0
SPLINE
  5
5A
330
1F
100
AcDbEntity
  8
Layer 1
370
    15
100
AcDbSpline
210
0.0
220
0.0
230
1.0
 70
    24
 71
     3
 72
     8
 73
     4
 74
     0
 42
0.0000000001
 43
0.0000000001
 12
1.0
 22
0.0
 32
0.0
 13
1.0
 23
0.0
 33
0.0
 40
0.0
 40
0.0
 40
0.0
 40
0.0
 40
1.0
 40
1.0
 40
1.0
 40
1.0
 10
-210.4101
 20
-142.6912
 30
0.0
 10
-210.4101
 20
-142.6912
 30
0.0
 10
-198.3231
 20
-142.7261
 30
0.0
 10
-198.3231
 20
-142.7261
 30
0.0
  0
SPLINE
  5
5B
330
1F
100
AcDbEntity
  8
Layer 1
370
    15
100
AcDbSpline
210
0.0
220
0.0
230
1.0
 70
    24
 71
     3
 72
     8
 73
     4
 74
     0
 42
0.0000000001
 43
0.0000000001
 12
1.0
 22
0.0
 32
0.0
 13
1.0
 23
0.0
 33
0.0
 40
0.0
 40
0.0
 40
0.0
 40
0.0
 40
1.0
 40
1.0
 40
1.0
 40
1.0
 10
-198.3231
 20
-142.7261
 30
0.0
 10
-198.3231
 20
-142.7261
 30
0.0
 10
-198.7264
 20
-140.8838
 30
0.0
 10
-198.7264
 20
-140.8838
 30
0.0
  0
SPLINE
  5
5C
330
1F
100
AcDbEntity
  8
Layer 1
370
    15
100
AcDbSpline
210
0.0
220
0.0
230
1.0
 70
     8
 71
     3
 72
    12
 73
     8
 74
     0
 42
0.0000000001
 43
0.0000000001
 12
1.0
 22
0.0
 32
0.0
 13
1.0
 23
0.0
 33
0.0
 40
0.0
 40
0.0
 40
0.0
 40
0.0
 40
0.3333333333333333
 40
0.3333333333333333
 40
0.3333333333333333
 40
0.3333333333333333
 40
1.0
 40
1.0
 40
1.0
 40
1.0
 10
-197.5541
 20
-140.6272
 30
0.0
 10
-197.625
 20
-140.3035
 30
0.0
 10
-197.9448
 20
-140.0985
 30
0.0
 10
-198.2686
 20
-140.1694
 30
0.0
 10
-198.2686
 20
-140.1694
 30
0.0
 10
-198.5923
 20
-140.2402
 30
0.0
 10
-198.7972
 20
-140.5601
 30
0.0
 10
-198.7264
 20
-140.8838
 30
0.0
  0
SPLINE
  5
5D
330
1F
100
AcDbEntity
  8
Layer 1
370
    15
100
AcDbSpline
210
0.0
220
0.0
230
1.0
 70
    24
 71
     3
 72
     8
 73
     4
 74
     0
 42
0.0000000001
 43
0.0000000001
 12
1.0
 22
0.0
 32
0.0
 13
1.0
 23
0.0
 33
0.0
 40
0.0
 40
0.0
 40
0.0
 40
0.0
 40
1.0
 40
1.0
 40
1.0
 40
1.0
 10
-197.5541
 20
-140.6272
 30
0.0
 10
-197.5541
 20
-140.6272
 30
0.0
 10
-197.0939
 20
-142.7296
 30
0.0
 10
-197.0939
 20
-142.7296
 30
0.0
  0
SPLINE
  5
5E
330
1F
100
AcDbEntity
  8
Layer 1
370
    15
100
AcDbSpline
210
0.0
220
0.0
230
1.0
 70
    24
 71
     3
 72
     8
 73
     4
 74
     0
 42
0.0000000001
 43
0.0000000001
 12
1.0
 22
0.0
 32
0.0
 13
1.0
 23
0.0
 33
0.0
 40
0.0
 40
0.0
 40
0.0
 40
0.0
 40
1.0
 40
1.0
 40
1.0
 40
1.0
 10
-197.0939
 20
-142.7296
 30
0.0
 10
-197.0939
 20
-142.7296
 30
0.0
 10
-191.7081
 20
-142.7452
 30
0.0
 10
-191.7081
 20
-142.7452
 30
0.0
  0
SPLINE
  5
5F
330
1F
100
AcDbEntity
  8
Layer 1
370
    15
100
AcDbSpline
210
0.0
220
0.0
230
1.0
 70
     8
 71
     3
 72
     8
 73
     4
 74
     0
 42
0.0000000001
 43
0.0000000001
 12
1.0
 22
0.0
 32
0.0
 13
1.0
 23
0.0
 33
0.0
 40
0.0
 40
0.0
 40
0.0
 40
0.0
 40
1.0
 40
1.0
 40
1.0
 40
1.0
 10
-191.7081
 20
-142.7452
 30
0.0
 10
-191.2709
 20
-142.7465
 30
0.0
 10
-190.8349
 20
-142.7
 30
0.0
 10
-190.4078
 20
-142.6065
 30
0.0
  0
SPLINE
  5
60
330
1F
100
AcDbEntity
  8
Layer 1
370
    15
100
AcDbSpline
210
0.0
220
0.0
230
1.0
 70
    24
 71
     3
 72
     8
 73
     4
 74
     0
 42
0.0000000001
 43
0.0000000001
 12
1.0
 22
0.0
 32
0.0
 13
1.0
 23
0.0
 33
0.0
 40
0.0
 40
0.0
 40
0.0
 40
0.0
 40
1.0
 40
1.0
 40
1.0
 40
1.0
 10
-190.4078
 20
-142.6065
 30
0.0
 10
-190.4078
 20
-142.6065
 30
0.0
 10
-186.166
 20
-141.678
 30
0.0
 10
-186.166
 20
-141.678
 30
0.0
  0
SPLINE
  5
61
330
1F
100
AcDbEntity
  8
Layer 1
370
    15
100
AcDbSpline
210
0.0
220
0.0
230
1.0
 70
    24
 71
     3
 72
     8
 73
     4
 74
     0
 42
0.0000000001
 43
0.0000000001
 12
1.0
 22
0.0
 32
0.0
 13
1.0
 23
0.0
 33
0.0
 40
0.0
 40
0.0
 40
0.0
 40
0.0
 40
1.0
 40
1.0
 40
1.0
 40
1.0
 10
-186.166
 20
-141.678
 30
0.0
 10
-186.166
 20
-141.678
 30
0.0
 10
-188.5663
 20
-130.7123
 30
0.0
 10
-188.5663
 20
-130.7123
 30
0.0
  0
SPLINE
  5
62
330
1F
100
AcDbEntity
  8
Layer 1
370
    15
100
AcDbSpline
210
0.0
220
0.0
230
1.0
 70
    24
 71
     3
 72
     8
 73
     4
 74
     0
 42
0.0000000001
 43
0.0000000001
 12
1.0
 22
0.0
 32
0.0
 13
1.0
 23
0.0
 33
0.0
 40
0.0
 40
0.0
 40
0.0
 40
0.0
 40
1.0
 40
1.0
 40
1.0
 40
1.0
 10
-188.5663
 20
-130.7123
 30
0.0
 10
-188.5663
 20
-130.7123
 30
0.0
 10
-197.1027
 20
-132.5809
 30
0.0
 10
-197.1027
 20
-132.5809
 30
0.0
  0
SPLINE
  5
63
330
1F
100
AcDbEntity
  8
Layer 1
370
    15
100
AcDbSpline
210
0.0
220
0.0
230
1.0
 70
     8
 71
     3
 72
     8
 73
     4
 74
     0
 42
0.0000000001
 43
0.0000000001
 12
1.0
 22
0.0
 32
0.0
 13
1.0
 23
0.0
 33
0.0
 40
0.0
 40
0.0
 40
0.0
 40
0.0
 40
1.0
 40
1.0
 40
1.0
 40
1.0
 10
-198.6771
 20
-132.7647
 30
0.0
 10
-198.1475
 20
-132.7557
 30
0.0
 10
-197.6202
 20
-132.6941
 30
0.0
 10
-197.1027
 20
-132.5809
 30
0.0
  0
SPLINE
  5
64
330
1F
100
AcDbEntity
  8
Layer 1
370
    15
100
AcDbSpline
210
0.0
220
0.0
230
1.0
 70
    24
 71
     3
 72
     8
 73
     4
 74
     0
 42
0.0000000001
 43
0.0000000001
 12
1.0
 22
0.0
 32
0.0
 13
1.0
 23
0.0
 33
0.0
 40
0.0
 40
0.0
 40
0.0
 40
0.0
 40
1.0
 40
1.0
 40
1.0
 40
1.0
 10
-198.6771
 20
-132.7647
 30
0.0
 10
-198.6771
 20
-132.7647
 30
0.0
 10
-270.3495
 20
-133.9852
 30
0.0
 10
-270.3495
 20
-133.9852
 30
0.0
  0
SPLINE
  5
65
330
1F
100
AcDbEntity
  8
Layer 1
370
    15
100
AcDbSpline
210
0.0
220
0.0
230
1.0
 70
     8
 71
     3
 72
     8
 73
     4
 74
     0
 42
0.0000000001
 43
0.0000000001
 12
1.0
 22
0.0
 32
0.0
 13
1.0
 23
0.0
 33
0.0
 40
0.0
 40
0.0
 40
0.0
 40
0.0
 40
1.0
 40
1.0
 40
1.0
 40
1.0
 10
-273.3312
 20
-131.6272
 30
0.0
 10
-273.0257
 20
-133.023
 30
0.0
 10
-271.7782
 20
-134.0096
 30
0.0
 10
-270.3495
 20
-133.9852
 30
0.0
  0
SPLINE
  5
66
330
1F
100
AcDbEntity
  8
Layer 1
370
    15
100
AcDbSpline
210
0.0
220
0.0
230
1.0
 70
    24
 71
     3
 72
     8
 73
     4
 74
     0
 42
0.0000000001
 43
0.0000000001
 12
1.0
 22
0.0
 32
0.0
 13
1.0
 23
0.0
 33
0.0
 40
0.0
 40
0.0
 40
0.0
 40
0.0
 40
1.0
 40
1.0
 40
1.0
 40
1.0
 10
-273.3312
 20
-131.6272
 30
0.0
 10
-273.3312
 20
-131.6272
 30
0.0
 10
-278.0447
 20
-110.0938
 30
0.0
 10
-278.0447
 20
-110.0938
 30
0.0
  0
SPLINE
  5
67
330
1F
100
AcDbEntity
  8
Layer 1
370
    15
100
AcDbSpline
210
0.0
220
0.0
230
1.0
 70
    24
 71
     3
 72
     8
 73
     4
 74
     0
 42
0.0000000001
 43
0.0000000001
 12
1.0
 22
0.0
 32
0.0
 13
1.0
 23
0.0
 33
0.0
 40
0.0
 40
0.0
 40
0.0
 40
0.0
 40
1.0
 40
1.0
 40
1.0
 40
1.0
 10
-278.0447
 20
-110.0938
 30
0.0
 10
-278.0447
 20
-110.0938
 30
0.0
 10
-281.4638
 20
-110.8422
 30
0.0
 10
-281.4638
 20
-110.8422
 30
0.0
  0
SPLINE
  5
68
330
1F
100
AcDbEntity
  8
Layer 1
370
    15
100
AcDbSpline
210
0.0
220
0.0
230
1.0
 70
    24
 71
     3
 72
     8
 73
     4
 74
     0
 42
0.0000000001
 43
0.0000000001
 12
1.0
 22
0.0
 32
0.0
 13
1.0
 23
0.0
 33
0.0
 40
0.0
 40
0.0
 40
0.0
 40
0.0
 40
1.0
 40
1.0
 40
1.0
 40
1.0
 10
-281.4638
 20
-110.8422
 30
0.0
 10
-281.4638
 20
-110.8422
 30
0.0
 10
-282.1052
 20
-107.9116
 30
0.0
 10
-282.1052
 20
-107.9116
 30
0.0
  0
SPLINE
  5
69
330
1F
100
AcDbEntity
  8
Layer 1
370
    15
100
AcDbSpline
210
0.0
220
0.0
230
1.0
 70
    24
 71
     3
 72
     8
 73
     4
 74
     0
 42
0.0000000001
 43
0.0000000001
 12
1.0
 22
0.0
 32
0.0
 13
1.0
 23
0.0
 33
0.0
 40
0.0
 40
0.0
 40
0.0
 40
0.0
 40
1.0
 40
1.0
 40
1.0
 40
1.0
 10
-282.1052
 20
-107.9116
 30
0.0
 10
-282.1052
 20
-107.9116
 30
0.0
 10
-278.6862
 20
-107.1632
 30
0.0
 10
-278.6862
 20
-107.1632
 30
0.0
  0
SPLINE
  5
6A
330
1F
100
AcDbEntity
  8
Layer 1
370
    15
100
AcDbSpline
210
0.0
220
0.0
230
1.0
 70
    24
 71
     3
 72
     8
 73
     4
 74
     0
 42
0.0000000001
 43
0.0000000001
 12
1.0
 22
0.0
 32
0.0
 13
1.0
 23
0.0
 33
0.0
 40
0.0
 40
0.0
 40
0.0
 40
0.0
 40
1.0
 40
1.0
 40
1.0
 40
1.0
 10
-278.6862
 20
-107.1632
 30
0.0
 10
-278.6862
 20
-107.1632
 30
0.0
 10
-283.3997
 20
-85.6297
 30
0.0
 10
-283.3997
 20
-85.6297
 30
0.0
  0
SPLINE
  5
6B
330
1F
100
AcDbEntity
  8
Layer 1
370
    15
100
AcDbSpline
210
0.0
220
0.0
230
1.0
 70
     8
 71
     3
 72
     8
 73
     4
 74
     0
 42
0.0000000001
 43
0.0000000001
 12
1.0
 22
0.0
 32
0.0
 13
1.0
 23
0.0
 33
0.0
 40
0.0
 40
0.0
 40
0.0
 40
0.0
 40
1.0
 40
1.0
 40
1.0
 40
1.0
 10
-281.6758
 20
-82.2416
 30
0.0
 10
-282.9839
 20
-82.8164
 30
0.0
 10
-283.7052
 20
-84.2339
 30
0.0
 10
-283.3997
 20
-85.6297
 30
0.0
  0
SPLINE
  5
6C
330
1F
100
AcDbEntity
  8
Layer 1
370
    15
100
AcDbSpline
210
0.0
220
0.0
230
1.0
 70
    24
 71
     3
 72
     8
 73
     4
 74
     0
 42
0.0000000001
 43
0.0000000001
 12
1.0
 22
0.0
 32
0.0
 13
1.0
 23
0.0
 33
0.0
 40
0.0
 40
0.0
 40
0.0
 40
0.0
 40
1.0
 40
1.0
 40
1.0
 40
1.0
 10
-281.6758
 20
-82.2416
 30
0.0
 10
-281.6758
 20
-82.2416
 30
0.0
 10
-216.0476
 20
-53.4083
 30
0.0
 10
-216.0476
 20
-53.4083
 30
0.0
  0
SPLINE
  5
6D
330
1F
100
AcDbEntity
  8
Layer 1
370
    15
100
AcDbSpline
210
0.0
220
0.0
230
1.0
 70
     8
 71
     3
 72
     8
 73
     4
 74
     0
 42
0.0000000001
 43
0.0000000001
 12
1.0
 22
0.0
 32
0.0
 13
1.0
 23
0.0
 33
0.0
 40
0.0
 40
0.0
 40
0.0
 40
0.0
 40
1.0
 40
1.0
 40
1.0
 40
1.0
 10
-214.5404
 20
-52.9175
 30
0.0
 10
-215.0578
 20
-53.0308
 30
0.0
 10
-215.5626
 20
-53.1952
 30
0.0
 10
-216.0476
 20
-53.4083
 30
0.0
  0
SPLINE
  5
6E
330
1F
100
AcDbEntity
  8
Layer 1
370
    15
100
AcDbSpline
210
0.0
220
0.0
230
1.0
 70
    24
 71
     3
 72
     8
 73
     4
 74
     0
 42
0.0000000001
 43
0.0000000001
 12
1.0
 22
0.0
 32
0.0
 13
1.0
 23
0.0
 33
0.0
 40
0.0
 40
0.0
 40
0.0
 40
0.0
 40
1.0
 40
1.0
 40
1.0
 40
1.0
 10
-214.5404
 20
-52.9175
 30
0.0
 10
-214.5404
 20
-52.9175
 30
0.0
 10
-206.004
 20
-51.049
 30
0.0
 10
-206.004
 20
-51.049
 30
0.0
  0
SPLINE
  5
6F
330
1F
100
AcDbEntity
  8
Layer 1
370
    15
100
AcDbSpline
210
0.0
220
0.0
230
1.0
 70
    24
 71
     3
 72
     8
 73
     4
 74
     0
 42
0.0000000001
 43
0.0000000001
 12
1.0
 22
0.0
 32
0.0
 13
1.0
 23
0.0
 33
0.0
 40
0.0
 40
0.0
 40
0.0
 40
0.0
 40
1.0
 40
1.0
 40
1.0
 40
1.0
 10
-206.004
 20
-51.049
 30
0.0
 10
-206.004
 20
-51.049
 30
0.0
 10
-206.6936
 20
-47.8984
 30
0.0
 10
-206.6936
 20
-47.8984
 30
0.0
  0
SPLINE
  5
70
330
1F
100
AcDbEntity
  8
Layer 1
370
    15
100
AcDbSpline
210
0.0
220
0.0
230
1.0
 70
    24
 71
     3
 72
     8
 73
     4
 74
     0
 42
0.0000000001
 43
0.0000000001
 12
1.0
 22
0.0
 32
0.0
 13
1.0
 23
0.0
 33
0.0
 40
0.0
 40
0.0
 40
0.0
 40
0.0
 40
1.0
 40
1.0
 40
1.0
 40
1.0
 10
-206.6936
 20
-47.8984
 30
0.0
 10
-206.6936
 20
-47.8984
 30
0.0
 10
-211.8536
 20
-49.0279
 30
0.0
 10
-211.8536
 20
-49.0279
 30
0.0
  0
SPLINE
  5
71
330
1F
100
AcDbEntity
  8
Layer 1
370
    15
100
AcDbSpline
210
0.0
220
0.0
230
1.0
 70
     8
 71
     3
 72
     8
 73
     4
 74
     0
 42
0.0000000001
 43
0.0000000001
 12
1.0
 22
0.0
 32
0.0
 13
1.0
 23
0.0
 33
0.0
 40
0.0
 40
0.0
 40
0.0
 40
0.0
 40
1.0
 40
1.0
 40
1.0
 40
1.0
 10
-214.6565
 20
-47.6366
 30
0.0
 10
-214.1639
 20
-48.7001
 30
0.0
 10
-212.9985
 20
-49.2785
 30
0.0
 10
-211.8536
 20
-49.0279
 30
0.0
  0
SPLINE
  5
72
330
1F
100
AcDbEntity
  8
Layer 1
370
    15
100
AcDbSpline
210
0.0
220
0.0
230
1.0
 70
    24
 71
     3
 72
     8
 73
     4
 74
     0
 42
0.0000000001
 43
0.0000000001
 12
1.0
 22
0.0
 32
0.0
 13
1.0
 23
0.0
 33
0.0
 40
0.0
 40
0.0
 40
0.0
 40
0.0
 40
1.0
 40
1.0
 40
1.0
 40
1.0
 10
-214.6565
 20
-47.6366
 30
0.0
 10
-214.6565
 20
-47.6366
 30
0.0
 10
-215.8371
 20
-45.0885
 30
0.0
 10
-215.8371
 20
-45.0885
 30
0.0
  0
SPLINE
  5
73
330
1F
100
AcDbEntity
  8
Layer 1
370
    15
100
AcDbSpline
210
0.0
220
0.0
230
1.0
 70
     8
 71
     3
 72
     8
 73
     4
 74
     0
 42
0.0000000001
 43
0.0000000001
 12
1.0
 22
0.0
 32
0.0
 13
1.0
 23
0.0
 33
0.0
 40
0.0
 40
0.0
 40
0.0
 40
0.0
 40
1.0
 40
1.0
 40
1.0
 40
1.0
 10
-215.8371
 20
-45.0885
 30
0.0
 10
-216.4175
 20
-43.8358
 30
0.0
 10
-217.9036
 20
-43.2907
 30
0.0
 10
-219.1564
 20
-43.8711
 30
0.0
  0
SPLINE
  5
74
330
1F
100
AcDbEntity
  8
Layer 1
370
    15
100
AcDbSpline
210
0.0
220
0.0
230
1.0
 70
    24
 71
     3
 72
     8
 73
     4
 74
     0
 42
0.0000000001
 43
0.0000000001
 12
1.0
 22
0.0
 32
0.0
 13
1.0
 23
0.0
 33
0.0
 40
0.0
 40
0.0
 40
0.0
 40
0.0
 40
1.0
 40
1.0
 40
1.0
 40
1.0
 10
-219.1564
 20
-43.8711
 30
0.0
 10
-219.1564
 20
-43.8711
 30
0.0
 10
-224.8134
 20
-46.4921
 30
0.0
 10
-224.8134
 20
-46.4921
 30
0.0
  0
SPLINE
  5
75
330
1F
100
AcDbEntity
  8
Layer 1
370
    15
100
AcDbSpline
210
0.0
220
0.0
230
1.0
 70
    24
 71
     3
 72
     8
 73
     4
 74
     0
 42
0.0000000001
 43
0.0000000001
 12
1.0
 22
0.0
 32
0.0
 13
1.0
 23
0.0
 33
0.0
 40
0.0
 40
0.0
 40
0.0
 40
0.0
 40
1.0
 40
1.0
 40
1.0
 40
1.0
 10
-224.8134
 20
-46.4921
 30
0.0
 10
-224.8134
 20
-46.4921
 30
0.0
 10
-224.3491
 20
-48.6132
 30
0.0
 10
-224.3491
 20
-48.6132
 30
0.0
  0
SPLINE
  5
76
330
1F
100
AcDbEntity
  8
Layer 1
370
    15
100
AcDbSpline
210
0.0
220
0.0
230
1.0
 70
     8
 71
     3
 72
    16
 73
    12
 74
     0
 42
0.0000000001
 43
0.0000000001
 12
1.0
 22
0.0
 32
0.0
 13
1.0
 23
0.0
 33
0.0
 40
0.0
 40
0.0
 40
0.0
 40
0.0
 40
0.25
 40
0.25
 40
0.25
 40
0.25
 40
0.5
 40
0.5
 40
0.5
 40
0.5
 40
1.0
 40
1.0
 40
1.0
 40
1.0
 10
-225.5214
 20
-48.8698
 30
0.0
 10
-225.4755
 20
-49.0792
 30
0.0
 10
-225.3214
 20
-49.2483
 30
0.0
 10
-225.1172
 20
-49.3132
 30
0.0
 10
-225.1172
 20
-49.3132
 30
0.0
 10
-224.913
 20
-49.3782
 30
0.0
 10
-224.6895
 20
-49.3293
 30
0.0
 10
-224.5311
 20
-49.1849
 30
0.0
 10
-224.5311
 20
-49.1849
 30
0.0
 10
-224.3727
 20
-49.0406
 30
0.0
 10
-224.3033
 20
-48.8226
 30
0.0
 10
-224.3491
 20
-48.6132
 30
0.0
  0
SPLINE
  5
77
330
1F
100
AcDbEntity
  8
Layer 1
370
    15
100
AcDbSpline
210
0.0
220
0.0
230
1.0
 70
    24
 71
     3
 72
     8
 73
     4
 74
     0
 42
0.0000000001
 43
0.0000000001
 12
1.0
 22
0.0
 32
0.0
 13
1.0
 23
0.0
 33
0.0
 40
0.0
 40
0.0
 40
0.0
 40
0.0
 40
1.0
 40
1.0
 40
1.0
 40
1.0
 10
-225.5214
 20
-48.8698
 30
0.0
 10
-225.5214
 20
-48.8698
 30
0.0
 10
-225.9287
 20
-47.0088
 30
0.0
 10
-225.9287
 20
-47.0088
 30
0.0
  0
SPLINE
  5
78
330
1F
100
AcDbEntity
  8
Layer 1
370
    15
100
AcDbSpline
210
0.0
220
0.0
230
1.0
 70
    24
 71
     3
 72
     8
 73
     4
 74
     0
 42
0.0000000001
 43
0.0000000001
 12
1.0
 22
0.0
 32
0.0
 13
1.0
 23
0.0
 33
0.0
 40
0.0
 40
0.0
 40
0.0
 40
0.0
 40
1.0
 40
1.0
 40
1.0
 40
1.0
 10
-225.9287
 20
-47.0088
 30
0.0
 10
-225.9287
 20
-47.0088
 30
0.0
 10
-236.8958
 20
-52.0901
 30
0.0
 10
-236.8958
 20
-52.0901
 30
0.0
  0
SPLINE
  5
79
330
1F
100
AcDbEntity
  8
Layer 1
370
    15
100
AcDbSpline
210
0.0
220
0.0
230
1.0
 70
    24
 71
     3
 72
     8
 73
     4
 74
     0
 42
0.0000000001
 43
0.0000000001
 12
1.0
 22
0.0
 32
0.0
 13
1.0
 23
0.0
 33
0.0
 40
0.0
 40
0.0
 40
0.0
 40
0.0
 40
1.0
 40
1.0
 40
1.0
 40
1.0
 10
-236.8958
 20
-52.0901
 30
0.0
 10
-236.8958
 20
-52.0901
 30
0.0
 10
-236.4234
 20
-54.2484
 30
0.0
 10
-236.4234
 20
-54.2484
 30
0.0
  0
SPLINE
  5
7A
330
1F
100
AcDbEntity
  8
Layer 1
370
    15
100
AcDbSpline
210
0.0
220
0.0
230
1.0
 70
     8
 71
     3
 72
    16
 73
    12
 74
     0
 42
0.0000000001
 43
0.0000000001
 12
1.0
 22
0.0
 32
0.0
 13
1.0
 23
0.0
 33
0.0
 40
0.0
 40
0.0
 40
0.0
 40
0.0
 40
0.25
 40
0.25
 40
0.25
 40
0.25
 40
0.5
 40
0.5
 40
0.5
 40
0.5
 40
1.0
 40
1.0
 40
1.0
 40
1.0
 10
-237.5956
 20
-54.505
 30
0.0
 10
-237.5498
 20
-54.7145
 30
0.0
 10
-237.3957
 20
-54.8834
 30
0.0
 10
-237.1915
 20
-54.9485
 30
0.0
 10
-237.1915
 20
-54.9485
 30
0.0
 10
-236.9872
 20
-55.0135
 30
0.0
 10
-236.7637
 20
-54.9646
 30
0.0
 10
-236.6054
 20
-54.8202
 30
0.0
 10
-236.6054
 20
-54.8202
 30
0.0
 10
-236.447
 20
-54.6758
 30
0.0
 10
-236.3775
 20
-54.4579
 30
0.0
 10
-236.4234
 20
-54.2484
 30
0.0
  0
SPLINE
  5
7B
330
1F
100
AcDbEntity
  8
Layer 1
370
    15
100
AcDbSpline
210
0.0
220
0.0
230
1.0
 70
    24
 71
     3
 72
     8
 73
     4
 74
     0
 42
0.0000000001
 43
0.0000000001
 12
1.0
 22
0.0
 32
0.0
 13
1.0
 23
0.0
 33
0.0
 40
0.0
 40
0.0
 40
0.0
 40
0.0
 40
1.0
 40
1.0
 40
1.0
 40
1.0
 10
-237.5956
 20
-54.505
 30
0.0
 10
-237.5956
 20
-54.505
 30
0.0
 10
-238.0111
 20
-52.6069
 30
0.0
 10
-238.0111
 20
-52.6069
 30
0.0
  0
SPLINE
  5
7C
330
1F
100
AcDbEntity
  8
Layer 1
370
    15
100
AcDbSpline
210
0.0
220
0.0
230
1.0
 70
    24
 71
     3
 72
     8
 73
     4
 74
     0
 42
0.0000000001
 43
0.0000000001
 12
1.0
 22
0.0
 32
0.0
 13
1.0
 23
0.0
 33
0.0
 40
0.0
 40
0.0
 40
0.0
 40
0.0
 40
1.0
 40
1.0
 40
1.0
 40
1.0
 10
-238.0111
 20
-52.6069
 30
0.0
 10
-238.0111
 20
-52.6069
 30
0.0
 10
-248.9783
 20
-57.6881
 30
0.0
 10
-248.9783
 20
-57.6881
 30
0.0
  0
SPLINE
  5
7D
330
1F
100
AcDbEntity
  8
Layer 1
370
    15
100
AcDbSpline
210
0.0
220
0.0
230
1.0
 70
    24
 71
     3
 72
     8
 73
     4
 74
     0
 42
0.0000000001
 43
0.0000000001
 12
1.0
 22
0.0
 32
0.0
 13
1.0
 23
0.0
 33
0.0
 40
0.0
 40
0.0
 40
0.0
 40
0.0
 40
1.0
 40
1.0
 40
1.0
 40
1.0
 10
-248.9783
 20
-57.6881
 30
0.0
 10
-248.9783
 20
-57.6881
 30
0.0
 10
-248.4977
 20
-59.8837
 30
0.0
 10
-248.4977
 20
-59.8837
 30
0.0
  0
SPLINE
  5
7E
330
1F
100
AcDbEntity
  8
Layer 1
370
    15
100
AcDbSpline
210
0.0
220
0.0
230
1.0
 70
     8
 71
     3
 72
    16
 73
    12
 74
     0
 42
0.0000000001
 43
0.0000000001
 12
1.0
 22
0.0
 32
0.0
 13
1.0
 23
0.0
 33
0.0
 40
0.0
 40
0.0
 40
0.0
 40
0.0
 40
0.25
 40
0.25
 40
0.25
 40
0.25
 40
0.5
 40
0.5
 40
0.5
 40
0.5
 40
1.0
 40
1.0
 40
1.0
 40
1.0
 10
-249.6699
 20
-60.1403
 30
0.0
 10
-249.6241
 20
-60.3496
 30
0.0
 10
-249.47
 20
-60.5187
 30
0.0
 10
-249.2658
 20
-60.5837
 30
0.0
 10
-249.2658
 20
-60.5837
 30
0.0
 10
-249.0615
 20
-60.6488
 30
0.0
 10
-248.838
 20
-60.5998
 30
0.0
 10
-248.6796
 20
-60.4554
 30
0.0
 10
-248.6796
 20
-60.4554
 30
0.0
 10
-248.5212
 20
-60.311
 30
0.0
 10
-248.4519
 20
-60.093
 30
0.0
 10
-248.4977
 20
-59.8837
 30
0.0
  0
SPLINE
  5
7F
330
1F
100
AcDbEntity
  8
Layer 1
370
    15
100
AcDbSpline
210
0.0
220
0.0
230
1.0
 70
    24
 71
     3
 72
     8
 73
     4
 74
     0
 42
0.0000000001
 43
0.0000000001
 12
1.0
 22
0.0
 32
0.0
 13
1.0
 23
0.0
 33
0.0
 40
0.0
 40
0.0
 40
0.0
 40
0.0
 40
1.0
 40
1.0
 40
1.0
 40
1.0
 10
-249.6699
 20
-60.1403
 30
0.0
 10
-249.6699
 20
-60.1403
 30
0.0
 10
-250.0936
 20
-58.2048
 30
0.0
 10
-250.0936
 20
-58.2048
 30
0.0
  0
SPLINE
  5
80
330
1F
100
AcDbEntity
  8
Layer 1
370
    15
100
AcDbSpline
210
0.0
220
0.0
230
1.0
 70
    24
 71
     3
 72
     8
 73
     4
 74
     0
 42
0.0000000001
 43
0.0000000001
 12
1.0
 22
0.0
 32
0.0
 13
1.0
 23
0.0
 33
0.0
 40
0.0
 40
0.0
 40
0.0
 40
0.0
 40
1.0
 40
1.0
 40
1.0
 40
1.0
 10
-250.0936
 20
-58.2048
 30
0.0
 10
-250.0936
 20
-58.2048
 30
0.0
 10
-261.0607
 20
-63.286
 30
0.0
 10
-261.0607
 20
-63.286
 30
0.0
  0
SPLINE
  5
81
330
1F
100
AcDbEntity
  8
Layer 1
370
    15
100
AcDbSpline
210
0.0
220
0.0
230
1.0
 70
    24
 71
     3
 72
     8
 73
     4
 74
     0
 42
0.0000000001
 43
0.0000000001
 12
1.0
 22
0.0
 32
0.0
 13
1.0
 23
0.0
 33
0.0
 40
0.0
 40
0.0
 40
0.0
 40
0.0
 40
1.0
 40
1.0
 40
1.0
 40
1.0
 10
-261.0607
 20
-63.286
 30
0.0
 10
-261.0607
 20
-63.286
 30
0.0
 10
-260.572
 20
-65.519
 30
0.0
 10
-260.572
 20
-65.519
 30
0.0
  0
SPLINE
  5
82
330
1F
100
AcDbEntity
  8
Layer 1
370
    15
100
AcDbSpline
210
0.0
220
0.0
230
1.0
 70
     8
 71
     3
 72
    16
 73
    12
 74
     0
 42
0.0000000001
 43
0.0000000001
 12
1.0
 22
0.0
 32
0.0
 13
1.0
 23
0.0
 33
0.0
 40
0.0
 40
0.0
 40
0.0
 40
0.0
 40
0.25
 40
0.25
 40
0.25
 40
0.25
 40
0.5
 40
0.5
 40
0.5
 40
0.5
 40
1.0
 40
1.0
 40
1.0
 40
1.0
 10
-261.7442
 20
-65.7756
 30
0.0
 10
-261.6984
 20
-65.9849
 30
0.0
 10
-261.5443
 20
-66.154
 30
0.0
 10
-261.34
 20
-66.219
 30
0.0
 10
-261.34
 20
-66.219
 30
0.0
 10
-261.1358
 20
-66.284
 30
0.0
 10
-260.9123
 20
-66.2351
 30
0.0
 10
-260.7539
 20
-66.0907
 30
0.0
 10
-260.7539
 20
-66.0907
 30
0.0
 10
-260.5955
 20
-65.9463
 30
0.0
 10
-260.5261
 20
-65.7283
 30
0.0
 10
-260.572
 20
-65.519
 30
0.0
  0
SPLINE
  5
83
330
1F
100
AcDbEntity
  8
Layer 1
370
    15
100
AcDbSpline
210
0.0
220
0.0
230
1.0
 70
    24
 71
     3
 72
     8
 73
     4
 74
     0
 42
0.0000000001
 43
0.0000000001
 12
1.0
 22
0.0
 32
0.0
 13
1.0
 23
0.0
 33
0.0
 40
0.0
 40
0.0
 40
0.0
 40
0.0
 40
1.0
 40
1.0
 40
1.0
 40
1.0
 10
-261.7442
 20
-65.7756
 30
0.0
 10
-261.7442
 20
-65.7756
 30
0.0
 10
-262.176
 20
-63.8028
 30
0.0
 10
-262.176
 20
-63.8028
 30
0.0
  0
SPLINE
  5
84
330
1F
100
AcDbEntity
  8
Layer 1
370
    15
100
AcDbSpline
210
0.0
220
0.0
230
1.0
 70
    24
 71
     3
 72
     8
 73
     4
 74
     0
 42
0.0000000001
 43
0.0000000001
 12
1.0
 22
0.0
 32
0.0
 13
1.0
 23
0.0
 33
0.0
 40
0.0
 40
0.0
 40
0.0
 40
0.0
 40
1.0
 40
1.0
 40
1.0
 40
1.0
 10
-262.176
 20
-63.8028
 30
0.0
 10
-262.176
 20
-63.8028
 30
0.0
 10
-273.1432
 20
-68.8841
 30
0.0
 10
-273.1432
 20
-68.8841
 30
0.0
  0
SPLINE
  5
85
330
1F
100
AcDbEntity
  8
Layer 1
370
    15
100
AcDbSpline
210
0.0
220
0.0
230
1.0
 70
    24
 71
     3
 72
     8
 73
     4
 74
     0
 42
0.0000000001
 43
0.0000000001
 12
1.0
 22
0.0
 32
0.0
 13
1.0
 23
0.0
 33
0.0
 40
0.0
 40
0.0
 40
0.0
 40
0.0
 40
1.0
 40
1.0
 40
1.0
 40
1.0
 10
-273.1432
 20
-68.8841
 30
0.0
 10
-273.1432
 20
-68.8841
 30
0.0
 10
-272.6463
 20
-71.1541
 30
0.0
 10
-272.6463
 20
-71.1541
 30
0.0
  0
SPLINE
  5
86
330
1F
100
AcDbEntity
  8
Layer 1
370
    15
100
AcDbSpline
210
0.0
220
0.0
230
1.0
 70
     8
 71
     3
 72
    16
 73
    12
 74
     0
 42
0.0000000001
 43
0.0000000001
 12
1.0
 22
0.0
 32
0.0
 13
1.0
 23
0.0
 33
0.0
 40
0.0
 40
0.0
 40
0.0
 40
0.0
 40
0.25
 40
0.25
 40
0.25
 40
0.25
 40
0.5
 40
0.5
 40
0.5
 40
0.5
 40
1.0
 40
1.0
 40
1.0
 40
1.0
 10
-273.8185
 20
-71.4107
 30
0.0
 10
-273.7727
 20
-71.6202
 30
0.0
 10
-273.6186
 20
-71.7892
 30
0.0
 10
-273.4143
 20
-71.8543
 30
0.0
 10
-273.4143
 20
-71.8543
 30
0.0
 10
-273.2101
 20
-71.9192
 30
0.0
 10
-272.9866
 20
-71.8703
 30
0.0
 10
-272.8282
 20
-71.726
 30
0.0
 10
-272.8282
 20
-71.726
 30
0.0
 10
-272.6698
 20
-71.5815
 30
0.0
 10
-272.6004
 20
-71.3636
 30
0.0
 10
-272.6463
 20
-71.1541
 30
0.0
  0
SPLINE
  5
87
330
1F
100
AcDbEntity
  8
Layer 1
370
    15
100
AcDbSpline
210
0.0
220
0.0
230
1.0
 70
    24
 71
     3
 72
     8
 73
     4
 74
     0
 42
0.0000000001
 43
0.0000000001
 12
1.0
 22
0.0
 32
0.0
 13
1.0
 23
0.0
 33
0.0
 40
0.0
 40
0.0
 40
0.0
 40
0.0
 40
1.0
 40
1.0
 40
1.0
 40
1.0
 10
-273.8185
 20
-71.4107
 30
0.0
 10
-273.8185
 20
-71.4107
 30
0.0
 10
-274.2585
 20
-69.4008
 30
0.0
 10
-274.2585
 20
-69.4008
 30
0.0
  0
SPLINE
  5
88
330
1F
100
AcDbEntity
  8
Layer 1
370
    15
100
AcDbSpline
210
0.0
220
0.0
230
1.0
 70
    24
 71
     3
 72
     8
 73
     4
 74
     0
 42
0.0000000001
 43
0.0000000001
 12
1.0
 22
0.0
 32
0.0
 13
1.0
 23
0.0
 33
0.0
 40
0.0
 40
0.0
 40
0.0
 40
0.0
 40
1.0
 40
1.0
 40
1.0
 40
1.0
 10
-274.2585
 20
-69.4008
 30
0.0
 10
-274.2585
 20
-69.4008
 30
0.0
 10
-285.2256
 20
-74.482
 30
0.0
 10
-285.2256
 20
-74.482
 30
0.0
  0
SPLINE
  5
89
330
1F
100
AcDbEntity
  8
Layer 1
370
    15
100
AcDbSpline
210
0.0
220
0.0
230
1.0
 70
    24
 71
     3
 72
     8
 73
     4
 74
     0
 42
0.0000000001
 43
0.0000000001
 12
1.0
 22
0.0
 32
0.0
 13
1.0
 23
0.0
 33
0.0
 40
0.0
 40
0.0
 40
0.0
 40
0.0
 40
1.0
 40
1.0
 40
1.0
 40
1.0
 10
-285.2256
 20
-74.482
 30
0.0
 10
-285.2256
 20
-74.482
 30
0.0
 10
-284.7205
 20
-76.7894
 30
0.0
 10
-284.7205
 20
-76.7894
 30
0.0
  0
SPLINE
  5
8A
330
1F
100
AcDbEntity
  8
Layer 1
370
    15
100
AcDbSpline
210
0.0
220
0.0
230
1.0
 70
     8
 71
     3
 72
    16
 73
    12
 74
     0
 42
0.0000000001
 43
0.0000000001
 12
1.0
 22
0.0
 32
0.0
 13
1.0
 23
0.0
 33
0.0
 40
0.0
 40
0.0
 40
0.0
 40
0.0
 40
0.25
 40
0.25
 40
0.25
 40
0.25
 40
0.5
 40
0.5
 40
0.5
 40
0.5
 40
1.0
 40
1.0
 40
1.0
 40
1.0
 10
-285.8928
 20
-77.046
 30
0.0
 10
-285.8469
 20
-77.2554
 30
0.0
 10
-285.6928
 20
-77.4245
 30
0.0
 10
-285.4886
 20
-77.4894
 30
0.0
 10
-285.4886
 20
-77.4894
 30
0.0
 10
-285.2844
 20
-77.5545
 30
0.0
 10
-285.0609
 20
-77.5055
 30
0.0
 10
-284.9025
 20
-77.3611
 30
0.0
 10
-284.9025
 20
-77.3611
 30
0.0
 10
-284.7441
 20
-77.2168
 30
0.0
 10
-284.6747
 20
-76.9988
 30
0.0
 10
-284.7205
 20
-76.7894
 30
0.0
  0
SPLINE
  5
8B
330
1F
100
AcDbEntity
  8
Layer 1
370
    15
100
AcDbSpline
210
0.0
220
0.0
230
1.0
 70
    24
 71
     3
 72
     8
 73
     4
 74
     0
 42
0.0000000001
 43
0.0000000001
 12
1.0
 22
0.0
 32
0.0
 13
1.0
 23
0.0
 33
0.0
 40
0.0
 40
0.0
 40
0.0
 40
0.0
 40
1.0
 40
1.0
 40
1.0
 40
1.0
 10
-285.8928
 20
-77.046
 30
0.0
 10
-285.8928
 20
-77.046
 30
0.0
 10
-286.3409
 20
-74.9988
 30
0.0
 10
-286.3409
 20
-74.9988
 30
0.0
  0
SPLINE
  5
8C
330
1F
100
AcDbEntity
  8
Layer 1
370
    15
100
AcDbSpline
210
0.0
220
0.0
230
1.0
 70
    24
 71
     3
 72
     8
 73
     4
 74
     0
 42
0.0000000001
 43
0.0000000001
 12
1.0
 22
0.0
 32
0.0
 13
1.0
 23
0.0
 33
0.0
 40
0.0
 40
0.0
 40
0.0
 40
0.0
 40
1.0
 40
1.0
 40
1.0
 40
1.0
 10
-286.3409
 20
-74.9988
 30
0.0
 10
-286.3409
 20
-74.9988
 30
0.0
 10
-293.6213
 20
-78.3719
 30
0.0
 10
-293.6213
 20
-78.3719
 30
0.0
  0
SPLINE
  5
8D
330
1F
100
AcDbEntity
  8
Layer 1
370
    15
100
AcDbSpline
210
0.0
220
0.0
230
1.0
 70
     8
 71
     3
 72
     8
 73
     4
 74
     0
 42
0.0000000001
 43
0.0000000001
 12
1.0
 22
0.0
 32
0.0
 13
1.0
 23
0.0
 33
0.0
 40
0.0
 40
0.0
 40
0.0
 40
0.0
 40
1.0
 40
1.0
 40
1.0
 40
1.0
 10
-293.6213
 20
-78.3719
 30
0.0
 10
-294.472
 20
-78.7661
 30
0.0
 10
-294.9348
 20
-79.6983
 30
0.0
 10
-294.7343
 20
-80.6143
 30
0.0
  0
SPLINE
  5
8E
330
1F
100
AcDbEntity
  8
Layer 1
370
    15
100
AcDbSpline
210
0.0
220
0.0
230
1.0
 70
    24
 71
     3
 72
     8
 73
     4
 74
     0
 42
0.0000000001
 43
0.0000000001
 12
1.0
 22
0.0
 32
0.0
 13
1.0
 23
0.0
 33
0.0
 40
0.0
 40
0.0
 40
0.0
 40
0.0
 40
1.0
 40
1.0
 40
1.0
 40
1.0
 10
-294.7343
 20
-80.6143
 30
0.0
 10
-294.7343
 20
-80.6143
 30
0.0
 10
-293.6937
 20
-85.3681
 30
0.0
 10
-293.6937
 20
-85.3681
 30
0.0
  0
SPLINE
  5
8F
330
1F
100
AcDbEntity
  8
Layer 1
370
    15
100
AcDbSpline
210
0.0
220
0.0
230
1.0
 70
    24
 71
     3
 72
     8
 73
     4
 74
     0
 42
0.0000000001
 43
0.0000000001
 12
1.0
 22
0.0
 32
0.0
 13
1.0
 23
0.0
 33
0.0
 40
0.0
 40
0.0
 40
0.0
 40
0.0
 40
1.0
 40
1.0
 40
1.0
 40
1.0
 10
-293.6937
 20
-85.3681
 30
0.0
 10
-293.6937
 20
-85.3681
 30
0.0
 10
-290.7631
 20
-84.7266
 30
0.0
 10
-290.7631
 20
-84.7266
 30
0.0
  0
SPLINE
  5
90
330
1F
100
AcDbEntity
  8
Layer 1
370
    15
100
AcDbSpline
210
0.0
220
0.0
230
1.0
 70
    24
 71
     3
 72
     8
 73
     4
 74
     0
 42
0.0000000001
 43
0.0000000001
 12
1.0
 22
0.0
 32
0.0
 13
1.0
 23
0.0
 33
0.0
 40
0.0
 40
0.0
 40
0.0
 40
0.0
 40
1.0
 40
1.0
 40
1.0
 40
1.0
 10
-290.7631
 20
-84.7266
 30
0.0
 10
-290.7631
 20
-84.7266
 30
0.0
 10
-279.644
 20
-135.5239
 30
0.0
 10
-279.644
 20
-135.5239
 30
0.0
  0
SPLINE
  5
91
330
1F
100
AcDbEntity
  8
Layer 1
370
    15
100
AcDbSpline
210
0.0
220
0.0
230
1.0
 70
    24
 71
     3
 72
     8
 73
     4
 74
     0
 42
0.0000000001
 43
0.0000000001
 12
1.0
 22
0.0
 32
0.0
 13
1.0
 23
0.0
 33
0.0
 40
0.0
 40
0.0
 40
0.0
 40
0.0
 40
1.0
 40
1.0
 40
1.0
 40
1.0
 10
-279.644
 20
-135.5239
 30
0.0
 10
-279.644
 20
-135.5239
 30
0.0
 10
-282.5746
 20
-136.1654
 30
0.0
 10
-282.5746
 20
-136.1654
 30
0.0
  0
SPLINE
  5
92
330
1F
100
AcDbEntity
  8
Layer 1
370
    15
100
AcDbSpline
210
0.0
220
0.0
230
1.0
 70
    24
 71
     3
 72
     8
 73
     4
 74
     0
 42
0.0000000001
 43
0.0000000001
 12
1.0
 22
0.0
 32
0.0
 13
1.0
 23
0.0
 33
0.0
 40
0.0
 40
0.0
 40
0.0
 40
0.0
 40
1.0
 40
1.0
 40
1.0
 40
1.0
 10
-282.5746
 20
-136.1654
 30
0.0
 10
-282.5746
 20
-136.1654
 30
0.0
 10
-281.534
 20
-140.9193
 30
0.0
 10
-281.534
 20
-140.9193
 30
0.0
  0
SPLINE
  5
93
330
1F
100
AcDbEntity
  8
Layer 1
370
    15
100
AcDbSpline
210
0.0
220
0.0
230
1.0
 70
     8
 71
     3
 72
     8
 73
     4
 74
     0
 42
0.0000000001
 43
0.0000000001
 12
1.0
 22
0.0
 32
0.0
 13
1.0
 23
0.0
 33
0.0
 40
0.0
 40
0.0
 40
0.0
 40
0.0
 40
1.0
 40
1.0
 40
1.0
 40
1.0
 10
-281.5339
 20
140.5483
 30
0.0
 10
-281.3335
 20
141.4642
 30
0.0
 10
-280.5236
 20
142.1178
 30
0.0
 10
-279.586
 20
142.1206
 30
0.0
  0
SPLINE
  5
94
330
1F
100
AcDbEntity
  8
Layer 1
370
    15
100
AcDbSpline
210
0.0
220
0.0
230
1.0
 70
    24
 71
     3
 72
     8
 73
     4
 74
     0
 42
0.0000000001
 43
0.0000000001
 12
1.0
 22
0.0
 32
0.0
 13
1.0
 23
0.0
 33
0.0
 40
0.0
 40
0.0
 40
0.0
 40
0.0
 40
1.0
 40
1.0
 40
1.0
 40
1.0
 10
-279.586
 20
142.1206
 30
0.0
 10
-279.586
 20
142.1206
 30
0.0
 10
-278.2203
 20
142.1245
 30
0.0
 10
-278.2203
 20
142.1245
 30
0.0
  0
SPLINE
  5
95
330
1F
100
AcDbEntity
  8
Layer 1
370
    15
100
AcDbSpline
210
0.0
220
0.0
230
1.0
 70
    24
 71
     3
 72
     8
 73
     4
 74
     0
 42
0.0000000001
 43
0.0000000001
 12
1.0
 22
0.0
 32
0.0
 13
1.0
 23
0.0
 33
0.0
 40
0.0
 40
0.0
 40
0.0
 40
0.0
 40
1.0
 40
1.0
 40
1.0
 40
1.0
 10
-278.2203
 20
142.1245
 30
0.0
 10
-278.2203
 20
142.1245
 30
0.0
 10
-278.6724
 20
140.0587
 30
0.0
 10
-278.6724
 20
140.0587
 30
0.0
  0
SPLINE
  5
96
330
1F
100
AcDbEntity
  8
Layer 1
370
    15
100
AcDbSpline
210
0.0
220
0.0
230
1.0
 70
     8
 71
     3
 72
    12
 73
     8
 74
     0
 42
0.0000000001
 43
0.0000000001
 12
1.0
 22
0.0
 32
0.0
 13
1.0
 23
0.0
 33
0.0
 40
0.0
 40
0.0
 40
0.0
 40
0.0
 40
0.3333333333333333
 40
0.3333333333333333
 40
0.3333333333333333
 40
0.3333333333333333
 40
1.0
 40
1.0
 40
1.0
 40
1.0
 10
-277.5002
 20
139.8021
 30
0.0
 10
-277.5711
 20
139.4784
 30
0.0
 10
-277.8909
 20
139.2734
 30
0.0
 10
-278.2146
 20
139.3443
 30
0.0
 10
-278.2146
 20
139.3443
 30
0.0
 10
-278.5384
 20
139.4151
 30
0.0
 10
-278.7433
 20
139.7349
 30
0.0
 10
-278.6724
 20
140.0587
 30
0.0
  0
SPLINE
  5
97
330
1F
100
AcDbEntity
  8
Layer 1
370
    15
100
AcDbSpline
210
0.0
220
0.0
230
1.0
 70
    24
 71
     3
 72
     8
 73
     4
 74
     0
 42
0.0000000001
 43
0.0000000001
 12
1.0
 22
0.0
 32
0.0
 13
1.0
 23
0.0
 33
0.0
 40
0.0
 40
0.0
 40
0.0
 40
0.0
 40
1.0
 40
1.0
 40
1.0
 40
1.0
 10
-277.5002
 20
139.8021
 30
0.0
 10
-277.5002
 20
139.8021
 30
0.0
 10
-276.9911
 20
142.128
 30
0.0
 10
-276.9911
 20
142.128
 30
0.0
  0
SPLINE
  5
98
330
1F
100
AcDbEntity
  8
Layer 1
370
    15
100
AcDbSpline
210
0.0
220
0.0
230
1.0
 70
    24
 71
     3
 72
     8
 73
     4
 74
     0
 42
0.0000000001
 43
0.0000000001
 12
1.0
 22
0.0
 32
0.0
 13
1.0
 23
0.0
 33
0.0
 40
0.0
 40
0.0
 40
0.0
 40
0.0
 40
1.0
 40
1.0
 40
1.0
 40
1.0
 10
-276.9911
 20
142.128
 30
0.0
 10
-276.9911
 20
142.128
 30
0.0
 10
-264.904
 20
142.163
 30
0.0
 10
-264.904
 20
142.163
 30
0.0
  0
SPLINE
  5
99
330
1F
100
AcDbEntity
  8
Layer 1
370
    15
100
AcDbSpline
210
0.0
220
0.0
230
1.0
 70
    24
 71
     3
 72
     8
 73
     4
 74
     0
 42
0.0000000001
 43
0.0000000001
 12
1.0
 22
0.0
 32
0.0
 13
1.0
 23
0.0
 33
0.0
 40
0.0
 40
0.0
 40
0.0
 40
0.0
 40
1.0
 40
1.0
 40
1.0
 40
1.0
 10
-264.904
 20
142.163
 30
0.0
 10
-264.904
 20
142.163
 30
0.0
 10
-265.3481
 20
140.1343
 30
0.0
 10
-265.3481
 20
140.1343
 30
0.0
  0
SPLINE
  5
9A
330
1F
100
AcDbEntity
  8
Layer 1
370
    15
100
AcDbSpline
210
0.0
220
0.0
230
1.0
 70
     8
 71
     3
 72
    12
 73
     8
 74
     0
 42
0.0000000001
 43
0.0000000001
 12
1.0
 22
0.0
 32
0.0
 13
1.0
 23
0.0
 33
0.0
 40
0.0
 40
0.0
 40
0.0
 40
0.0
 40
0.3333333333333333
 40
0.3333333333333333
 40
0.3333333333333333
 40
0.3333333333333333
 40
1.0
 40
1.0
 40
1.0
 40
1.0
 10
-264.1759
 20
139.8777
 30
0.0
 10
-264.2467
 20
139.5541
 30
0.0
 10
-264.5665
 20
139.349
 30
0.0
 10
-264.8903
 20
139.4199
 30
0.0
 10
-264.8903
 20
139.4199
 30
0.0
 10
-265.214
 20
139.4907
 30
0.0
 10
-265.4189
 20
139.8107
 30
0.0
 10
-265.3481
 20
140.1343
 30
0.0
  0
SPLINE
  5
9B
330
1F
100
AcDbEntity
  8
Layer 1
370
    15
100
AcDbSpline
210
0.0
220
0.0
230
1.0
 70
    24
 71
     3
 72
     8
 73
     4
 74
     0
 42
0.0000000001
 43
0.0000000001
 12
1.0
 22
0.0
 32
0.0
 13
1.0
 23
0.0
 33
0.0
 40
0.0
 40
0.0
 40
0.0
 40
0.0
 40
1.0
 40
1.0
 40
1.0
 40
1.0
 10
-264.1759
 20
139.8777
 30
0.0
 10
-264.1759
 20
139.8777
 30
0.0
 10
-263.6748
 20
142.1665
 30
0.0
 10
-263.6748
 20
142.1665
 30
0.0
  0
SPLINE
  5
9C
330
1F
100
AcDbEntity
  8
Layer 1
370
    15
100
AcDbSpline
210
0.0
220
0.0
230
1.0
 70
    24
 71
     3
 72
     8
 73
     4
 74
     0
 42
0.0000000001
 43
0.0000000001
 12
1.0
 22
0.0
 32
0.0
 13
1.0
 23
0.0
 33
0.0
 40
0.0
 40
0.0
 40
0.0
 40
0.0
 40
1.0
 40
1.0
 40
1.0
 40
1.0
 10
-263.6748
 20
142.1665
 30
0.0
 10
-263.6748
 20
142.1665
 30
0.0
 10
-251.5878
 20
142.2014
 30
0.0
 10
-251.5878
 20
142.2014
 30
0.0
  0
SPLINE
  5
9D
330
1F
100
AcDbEntity
  8
Layer 1
370
    15
100
AcDbSpline
210
0.0
220
0.0
230
1.0
 70
    24
 71
     3
 72
     8
 73
     4
 74
     0
 42
0.0000000001
 43
0.0000000001
 12
1.0
 22
0.0
 32
0.0
 13
1.0
 23
0.0
 33
0.0
 40
0.0
 40
0.0
 40
0.0
 40
0.0
 40
1.0
 40
1.0
 40
1.0
 40
1.0
 10
-251.5878
 20
142.2014
 30
0.0
 10
-251.5878
 20
142.2014
 30
0.0
 10
-252.0237
 20
140.21
 30
0.0
 10
-252.0237
 20
140.21
 30
0.0
  0
SPLINE
  5
9E
330
1F
100
AcDbEntity
  8
Layer 1
370
    15
100
AcDbSpline
210
0.0
220
0.0
230
1.0
 70
     8
 71
     3
 72
    12
 73
     8
 74
     0
 42
0.0000000001
 43
0.0000000001
 12
1.0
 22
0.0
 32
0.0
 13
1.0
 23
0.0
 33
0.0
 40
0.0
 40
0.0
 40
0.0
 40
0.0
 40
0.3333333333333333
 40
0.3333333333333333
 40
0.3333333333333333
 40
0.3333333333333333
 40
1.0
 40
1.0
 40
1.0
 40
1.0
 10
-250.8515
 20
139.9534
 30
0.0
 10
-250.9223
 20
139.6297
 30
0.0
 10
-251.2422
 20
139.4247
 30
0.0
 10
-251.5659
 20
139.4956
 30
0.0
 10
-251.5659
 20
139.4956
 30
0.0
 10
-251.8896
 20
139.5665
 30
0.0
 10
-252.0946
 20
139.8863
 30
0.0
 10
-252.0237
 20
140.21
 30
0.0
  0
SPLINE
  5
9F
330
1F
100
AcDbEntity
  8
Layer 1
370
    15
100
AcDbSpline
210
0.0
220
0.0
230
1.0
 70
    24
 71
     3
 72
     8
 73
     4
 74
     0
 42
0.0000000001
 43
0.0000000001
 12
1.0
 22
0.0
 32
0.0
 13
1.0
 23
0.0
 33
0.0
 40
0.0
 40
0.0
 40
0.0
 40
0.0
 40
1.0
 40
1.0
 40
1.0
 40
1.0
 10
-250.8515
 20
139.9534
 30
0.0
 10
-250.8515
 20
139.9534
 30
0.0
 10
-250.3587
 20
142.2049
 30
0.0
 10
-250.3587
 20
142.2049
 30
0.0
  0
SPLINE
  5
A0
330
1F
100
AcDbEntity
  8
Layer 1
370
    15
100
AcDbSpline
210
0.0
220
0.0
230
1.0
 70
    24
 71
     3
 72
     8
 73
     4
 74
     0
 42
0.0000000001
 43
0.0000000001
 12
1.0
 22
0.0
 32
0.0
 13
1.0
 23
0.0
 33
0.0
 40
0.0
 40
0.0
 40
0.0
 40
0.0
 40
1.0
 40
1.0
 40
1.0
 40
1.0
 10
-250.3587
 20
142.2049
 30
0.0
 10
-250.3587
 20
142.2049
 30
0.0
 10
-238.2716
 20
142.2398
 30
0.0
 10
-238.2716
 20
142.2398
 30
0.0
  0
SPLINE
  5
A1
330
1F
100
AcDbEntity
  8
Layer 1
370
    15
100
AcDbSpline
210
0.0
220
0.0
230
1.0
 70
    24
 71
     3
 72
     8
 73
     4
 74
     0
 42
0.0000000001
 43
0.0000000001
 12
1.0
 22
0.0
 32
0.0
 13
1.0
 23
0.0
 33
0.0
 40
0.0
 40
0.0
 40
0.0
 40
0.0
 40
1.0
 40
1.0
 40
1.0
 40
1.0
 10
-238.2716
 20
142.2398
 30
0.0
 10
-238.2716
 20
142.2398
 30
0.0
 10
-238.6994
 20
140.2857
 30
0.0
 10
-238.6994
 20
140.2857
 30
0.0
  0
SPLINE
  5
A2
330
1F
100
AcDbEntity
  8
Layer 1
370
    15
100
AcDbSpline
210
0.0
220
0.0
230
1.0
 70
     8
 71
     3
 72
    12
 73
     8
 74
     0
 42
0.0000000001
 43
0.0000000001
 12
1.0
 22
0.0
 32
0.0
 13
1.0
 23
0.0
 33
0.0
 40
0.0
 40
0.0
 40
0.0
 40
0.0
 40
0.3333333333333333
 40
0.3333333333333333
 40
0.3333333333333333
 40
0.3333333333333333
 40
1.0
 40
1.0
 40
1.0
 40
1.0
 10
-237.5271
 20
140.0291
 30
0.0
 10
-237.598
 20
139.7054
 30
0.0
 10
-237.9178
 20
139.5005
 30
0.0
 10
-238.2415
 20
139.5713
 30
0.0
 10
-238.2415
 20
139.5713
 30
0.0
 10
-238.5653
 20
139.6422
 30
0.0
 10
-238.7702
 20
139.962
 30
0.0
 10
-238.6994
 20
140.2857
 30
0.0
  0
SPLINE
  5
A3
330
1F
100
AcDbEntity
  8
Layer 1
370
    15
100
AcDbSpline
210
0.0
220
0.0
230
1.0
 70
    24
 71
     3
 72
     8
 73
     4
 74
     0
 42
0.0000000001
 43
0.0000000001
 12
1.0
 22
0.0
 32
0.0
 13
1.0
 23
0.0
 33
0.0
 40
0.0
 40
0.0
 40
0.0
 40
0.0
 40
1.0
 40
1.0
 40
1.0
 40
1.0
 10
-237.5271
 20
140.0291
 30
0.0
 10
-237.5271
 20
140.0291
 30
0.0
 10
-237.0425
 20
142.2433
 30
0.0
 10
-237.0425
 20
142.2433
 30
0.0
  0
SPLINE
  5
A4
330
1F
100
AcDbEntity
  8
Layer 1
370
    15
100
AcDbSpline
210
0.0
220
0.0
230
1.0
 70
    24
 71
     3
 72
     8
 73
     4
 74
     0
 42
0.0000000001
 43
0.0000000001
 12
1.0
 22
0.0
 32
0.0
 13
1.0
 23
0.0
 33
0.0
 40
0.0
 40
0.0
 40
0.0
 40
0.0
 40
1.0
 40
1.0
 40
1.0
 40
1.0
 10
-237.0425
 20
142.2433
 30
0.0
 10
-237.0425
 20
142.2433
 30
0.0
 10
-224.9554
 20
142.2783
 30
0.0
 10
-224.9554
 20
142.2783
 30
0.0
  0
SPLINE
  5
A5
330
1F
100
AcDbEntity
  8
Layer 1
370
    15
100
AcDbSpline
210
0.0
220
0.0
230
1.0
 70
    24
 71
     3
 72
     8
 73
     4
 74
     0
 42
0.0000000001
 43
0.0000000001
 12
1.0
 22
0.0
 32
0.0
 13
1.0
 23
0.0
 33
0.0
 40
0.0
 40
0.0
 40
0.0
 40
0.0
 40
1.0
 40
1.0
 40
1.0
 40
1.0
 10
-224.9554
 20
142.2783
 30
0.0
 10
-224.9554
 20
142.2783
 30
0.0
 10
-225.375
 20
140.3615
 30
0.0
 10
-225.375
 20
140.3615
 30
0.0
  0
SPLINE
  5
A6
330
1F
100
AcDbEntity
  8
Layer 1
370
    15
100
AcDbSpline
210
0.0
220
0.0
230
1.0
 70
     8
 71
     3
 72
    12
 73
     8
 74
     0
 42
0.0000000001
 43
0.0000000001
 12
1.0
 22
0.0
 32
0.0
 13
1.0
 23
0.0
 33
0.0
 40
0.0
 40
0.0
 40
0.0
 40
0.0
 40
0.3333333333333333
 40
0.3333333333333333
 40
0.3333333333333333
 40
0.3333333333333333
 40
1.0
 40
1.0
 40
1.0
 40
1.0
 10
-224.2027
 20
140.1049
 30
0.0
 10
-224.2736
 20
139.7811
 30
0.0
 10
-224.5934
 20
139.5762
 30
0.0
 10
-224.9172
 20
139.647
 30
0.0
 10
-224.9172
 20
139.647
 30
0.0
 10
-225.2409
 20
139.7179
 30
0.0
 10
-225.4459
 20
140.0377
 30
0.0
 10
-225.375
 20
140.3615
 30
0.0
  0
SPLINE
  5
A7
330
1F
100
AcDbEntity
  8
Layer 1
370
    15
100
AcDbSpline
210
0.0
220
0.0
230
1.0
 70
    24
 71
     3
 72
     8
 73
     4
 74
     0
 42
0.0000000001
 43
0.0000000001
 12
1.0
 22
0.0
 32
0.0
 13
1.0
 23
0.0
 33
0.0
 40
0.0
 40
0.0
 40
0.0
 40
0.0
 40
1.0
 40
1.0
 40
1.0
 40
1.0
 10
-224.2027
 20
140.1049
 30
0.0
 10
-224.2027
 20
140.1049
 30
0.0
 10
-223.7262
 20
142.2818
 30
0.0
 10
-223.7262
 20
142.2818
 30
0.0
  0
SPLINE
  5
A8
330
1F
100
AcDbEntity
  8
Layer 1
370
    15
100
AcDbSpline
210
0.0
220
0.0
230
1.0
 70
    24
 71
     3
 72
     8
 73
     4
 74
     0
 42
0.0000000001
 43
0.0000000001
 12
1.0
 22
0.0
 32
0.0
 13
1.0
 23
0.0
 33
0.0
 40
0.0
 40
0.0
 40
0.0
 40
0.0
 40
1.0
 40
1.0
 40
1.0
 40
1.0
 10
-223.7262
 20
142.2818
 30
0.0
 10
-223.7262
 20
142.2818
 30
0.0
 10
-211.6392
 20
142.3167
 30
0.0
 10
-211.6392
 20
142.3167
 30
0.0
  0
SPLINE
  5
A9
330
1F
100
AcDbEntity
  8
Layer 1
370
    15
100
AcDbSpline
210
0.0
220
0.0
230
1.0
 70
    24
 71
     3
 72
     8
 73
     4
 74
     0
 42
0.0000000001
 43
0.0000000001
 12
1.0
 22
0.0
 32
0.0
 13
1.0
 23
0.0
 33
0.0
 40
0.0
 40
0.0
 40
0.0
 40
0.0
 40
1.0
 40
1.0
 40
1.0
 40
1.0
 10
-211.6392
 20
142.3167
 30
0.0
 10
-211.6392
 20
142.3167
 30
0.0
 10
-212.0506
 20
140.4371
 30
0.0
 10
-212.0506
 20
140.4371
 30
0.0
  0
SPLINE
  5
AA
330
1F
100
AcDbEntity
  8
Layer 1
370
    15
100
AcDbSpline
210
0.0
220
0.0
230
1.0
 70
     8
 71
     3
 72
    12
 73
     8
 74
     0
 42
0.0000000001
 43
0.0000000001
 12
1.0
 22
0.0
 32
0.0
 13
1.0
 23
0.0
 33
0.0
 40
0.0
 40
0.0
 40
0.0
 40
0.0
 40
0.3333333333333333
 40
0.3333333333333333
 40
0.3333333333333333
 40
0.3333333333333333
 40
1.0
 40
1.0
 40
1.0
 40
1.0
 10
-210.8784
 20
140.1805
 30
0.0
 10
-210.9492
 20
139.8568
 30
0.0
 10
-211.2691
 20
139.6518
 30
0.0
 10
-211.5928
 20
139.7227
 30
0.0
 10
-211.5928
 20
139.7227
 30
0.0
 10
-211.9166
 20
139.7935
 30
0.0
 10
-212.1215
 20
140.1134
 30
0.0
 10
-212.0506
 20
140.4371
 30
0.0
  0
SPLINE
  5
AB
330
1F
100
AcDbEntity
  8
Layer 1
370
    15
100
AcDbSpline
210
0.0
220
0.0
230
1.0
 70
    24
 71
     3
 72
     8
 73
     4
 74
     0
 42
0.0000000001
 43
0.0000000001
 12
1.0
 22
0.0
 32
0.0
 13
1.0
 23
0.0
 33
0.0
 40
0.0
 40
0.0
 40
0.0
 40
0.0
 40
1.0
 40
1.0
 40
1.0
 40
1.0
 10
-210.8784
 20
140.1805
 30
0.0
 10
-210.8784
 20
140.1805
 30
0.0
 10
-210.41
 20
142.3202
 30
0.0
 10
-210.41
 20
142.3202
 30
0.0
  0
SPLINE
  5
AC
330
1F
100
AcDbEntity
  8
Layer 1
370
    15
100
AcDbSpline
210
0.0
220
0.0
230
1.0
 70
    24
 71
     3
 72
     8
 73
     4
 74
     0
 42
0.0000000001
 43
0.0000000001
 12
1.0
 22
0.0
 32
0.0
 13
1.0
 23
0.0
 33
0.0
 40
0.0
 40
0.0
 40
0.0
 40
0.0
 40
1.0
 40
1.0
 40
1.0
 40
1.0
 10
-210.41
 20
142.3202
 30
0.0
 10
-210.41
 20
142.3202
 30
0.0
 10
-198.323
 20
142.3551
 30
0.0
 10
-198.323
 20
142.3551
 30
0.0
  0
SPLINE
  5
AD
330
1F
100
AcDbEntity
  8
Layer 1
370
    15
100
AcDbSpline
210
0.0
220
0.0
230
1.0
 70
    24
 71
     3
 72
     8
 73
     4
 74
     0
 42
0.0000000001
 43
0.0000000001
 12
1.0
 22
0.0
 32
0.0
 13
1.0
 23
0.0
 33
0.0
 40
0.0
 40
0.0
 40
0.0
 40
0.0
 40
1.0
 40
1.0
 40
1.0
 40
1.0
 10
-198.323
 20
142.3551
 30
0.0
 10
-198.323
 20
142.3551
 30
0.0
 10
-198.7263
 20
140.5128
 30
0.0
 10
-198.7263
 20
140.5128
 30
0.0
  0
SPLINE
  5
AE
330
1F
100
AcDbEntity
  8
Layer 1
370
    15
100
AcDbSpline
210
0.0
220
0.0
230
1.0
 70
     8
 71
     3
 72
    12
 73
     8
 74
     0
 42
0.0000000001
 43
0.0000000001
 12
1.0
 22
0.0
 32
0.0
 13
1.0
 23
0.0
 33
0.0
 40
0.0
 40
0.0
 40
0.0
 40
0.0
 40
0.3333333333333333
 40
0.3333333333333333
 40
0.3333333333333333
 40
0.3333333333333333
 40
1.0
 40
1.0
 40
1.0
 40
1.0
 10
-197.554
 20
140.2562
 30
0.0
 10
-197.6249
 20
139.9325
 30
0.0
 10
-197.9447
 20
139.7275
 30
0.0
 10
-198.2685
 20
139.7984
 30
0.0
 10
-198.2685
 20
139.7984
 30
0.0
 10
-198.5922
 20
139.8692
 30
0.0
 10
-198.7971
 20
140.1891
 30
0.0
 10
-198.7263
 20
140.5128
 30
0.0
  0
SPLINE
  5
AF
330
1F
100
AcDbEntity
  8
Layer 1
370
    15
100
AcDbSpline
210
0.0
220
0.0
230
1.0
 70
    24
 71
     3
 72
     8
 73
     4
 74
     0
 42
0.0000000001
 43
0.0000000001
 12
1.0
 22
0.0
 32
0.0
 13
1.0
 23
0.0
 33
0.0
 40
0.0
 40
0.0
 40
0.0
 40
0.0
 40
1.0
 40
1.0
 40
1.0
 40
1.0
 10
-197.554
 20
140.2562
 30
0.0
 10
-197.554
 20
140.2562
 30
0.0
 10
-197.0938
 20
142.3586
 30
0.0
 10
-197.0938
 20
142.3586
 30
0.0
  0
SPLINE
  5
B0
330
1F
100
AcDbEntity
  8
Layer 1
370
    15
100
AcDbSpline
210
0.0
220
0.0
230
1.0
 70
    24
 71
     3
 72
     8
 73
     4
 74
     0
 42
0.0000000001
 43
0.0000000001
 12
1.0
 22
0.0
 32
0.0
 13
1.0
 23
0.0
 33
0.0
 40
0.0
 40
0.0
 40
0.0
 40
0.0
 40
1.0
 40
1.0
 40
1.0
 40
1.0
 10
-197.0938
 20
142.3586
 30
0.0
 10
-197.0938
 20
142.3586
 30
0.0
 10
-191.708
 20
142.3742
 30
0.0
 10
-191.708
 20
142.3742
 30
0.0
  0
SPLINE
  5
B1
330
1F
100
AcDbEntity
  8
Layer 1
370
    15
100
AcDbSpline
210
0.0
220
0.0
230
1.0
 70
     8
 71
     3
 72
     8
 73
     4
 74
     0
 42
0.0000000001
 43
0.0000000001
 12
1.0
 22
0.0
 32
0.0
 13
1.0
 23
0.0
 33
0.0
 40
0.0
 40
0.0
 40
0.0
 40
0.0
 40
1.0
 40
1.0
 40
1.0
 40
1.0
 10
-191.708
 20
142.3742
 30
0.0
 10
-191.2708
 20
142.3755
 30
0.0
 10
-190.8348
 20
142.329
 30
0.0
 10
-190.4077
 20
142.2355
 30
0.0
  0
SPLINE
  5
B2
330
1F
100
AcDbEntity
  8
Layer 1
370
    15
100
AcDbSpline
210
0.0
220
0.0
230
1.0
 70
    24
 71
     3
 72
     8
 73
     4
 74
     0
 42
0.0000000001
 43
0.0000000001
 12
1.0
 22
0.0
 32
0.0
 13
1.0
 23
0.0
 33
0.0
 40
0.0
 40
0.0
 40
0.0
 40
0.0
 40
1.0
 40
1.0
 40
1.0
 40
1.0
 10
-190.4077
 20
142.2355
 30
0.0
 10
-190.4077
 20
142.2355
 30
0.0
 10
-186.1659
 20
141.307
 30
0.0
 10
-186.1659
 20
141.307
 30
0.0
  0
SPLINE
  5
B3
330
1F
100
AcDbEntity
  8
Layer 1
370
    15
100
AcDbSpline
210
0.0
220
0.0
230
1.0
 70
    24
 71
     3
 72
     8
 73
     4
 74
     0
 42
0.0000000001
 43
0.0000000001
 12
1.0
 22
0.0
 32
0.0
 13
1.0
 23
0.0
 33
0.0
 40
0.0
 40
0.0
 40
0.0
 40
0.0
 40
1.0
 40
1.0
 40
1.0
 40
1.0
 10
-186.1659
 20
141.307
 30
0.0
 10
-186.1659
 20
141.307
 30
0.0
 10
-188.5662
 20
130.3413
 30
0.0
 10
-188.5662
 20
130.3413
 30
0.0
  0
SPLINE
  5
B4
330
1F
100
AcDbEntity
  8
Layer 1
370
    15
100
AcDbSpline
210
0.0
220
0.0
230
1.0
 70
    24
 71
     3
 72
     8
 73
     4
 74
     0
 42
0.0000000001
 43
0.0000000001
 12
1.0
 22
0.0
 32
0.0
 13
1.0
 23
0.0
 33
0.0
 40
0.0
 40
0.0
 40
0.0
 40
0.0
 40
1.0
 40
1.0
 40
1.0
 40
1.0
 10
-188.5662
 20
130.3413
 30
0.0
 10
-188.5662
 20
130.3413
 30
0.0
 10
-197.1026
 20
132.2099
 30
0.0
 10
-197.1026
 20
132.2099
 30
0.0
  0
SPLINE
  5
B5
330
1F
100
AcDbEntity
  8
Layer 1
370
    15
100
AcDbSpline
210
0.0
220
0.0
230
1.0
 70
     8
 71
     3
 72
     8
 73
     4
 74
     0
 42
0.0000000001
 43
0.0000000001
 12
1.0
 22
0.0
 32
0.0
 13
1.0
 23
0.0
 33
0.0
 40
0.0
 40
0.0
 40
0.0
 40
0.0
 40
1.0
 40
1.0
 40
1.0
 40
1.0
 10
-198.677
 20
132.3937
 30
0.0
 10
-198.1474
 20
132.3847
 30
0.0
 10
-197.6201
 20
132.3231
 30
0.0
 10
-197.1026
 20
132.2099
 30
0.0
  0
SPLINE
  5
B6
330
1F
100
AcDbEntity
  8
Layer 1
370
    15
100
AcDbSpline
210
0.0
220
0.0
230
1.0
 70
    24
 71
     3
 72
     8
 73
     4
 74
     0
 42
0.0000000001
 43
0.0000000001
 12
1.0
 22
0.0
 32
0.0
 13
1.0
 23
0.0
 33
0.0
 40
0.0
 40
0.0
 40
0.0
 40
0.0
 40
1.0
 40
1.0
 40
1.0
 40
1.0
 10
-198.677
 20
132.3937
 30
0.0
 10
-198.677
 20
132.3937
 30
0.0
 10
-270.3494
 20
133.6142
 30
0.0
 10
-270.3494
 20
133.6142
 30
0.0
  0
SPLINE
  5
B7
330
1F
100
AcDbEntity
  8
Layer 1
370
    15
100
AcDbSpline
210
0.0
220
0.0
230
1.0
 70
     8
 71
     3
 72
     8
 73
     4
 74
     0
 42
0.0000000001
 43
0.0000000001
 12
1.0
 22
0.0
 32
0.0
 13
1.0
 23
0.0
 33
0.0
 40
0.0
 40
0.0
 40
0.0
 40
0.0
 40
1.0
 40
1.0
 40
1.0
 40
1.0
 10
-273.3311
 20
131.2562
 30
0.0
 10
-273.0256
 20
132.652
 30
0.0
 10
-271.7781
 20
133.6386
 30
0.0
 10
-270.3494
 20
133.6142
 30
0.0
  0
SPLINE
  5
B8
330
1F
100
AcDbEntity
  8
Layer 1
370
    15
100
AcDbSpline
210
0.0
220
0.0
230
1.0
 70
    24
 71
     3
 72
     8
 73
     4
 74
     0
 42
0.0000000001
 43
0.0000000001
 12
1.0
 22
0.0
 32
0.0
 13
1.0
 23
0.0
 33
0.0
 40
0.0
 40
0.0
 40
0.0
 40
0.0
 40
1.0
 40
1.0
 40
1.0
 40
1.0
 10
-273.3311
 20
131.2562
 30
0.0
 10
-273.3311
 20
131.2562
 30
0.0
 10
-278.0446
 20
109.7228
 30
0.0
 10
-278.0446
 20
109.7228
 30
0.0
  0
SPLINE
  5
B9
330
1F
100
AcDbEntity
  8
Layer 1
370
    15
100
AcDbSpline
210
0.0
220
0.0
230
1.0
 70
    24
 71
     3
 72
     8
 73
     4
 74
     0
 42
0.0000000001
 43
0.0000000001
 12
1.0
 22
0.0
 32
0.0
 13
1.0
 23
0.0
 33
0.0
 40
0.0
 40
0.0
 40
0.0
 40
0.0
 40
1.0
 40
1.0
 40
1.0
 40
1.0
 10
-278.0446
 20
109.7228
 30
0.0
 10
-278.0446
 20
109.7228
 30
0.0
 10
-281.4637
 20
110.4712
 30
0.0
 10
-281.4637
 20
110.4712
 30
0.0
  0
SPLINE
  5
BA
330
1F
100
AcDbEntity
  8
Layer 1
370
    15
100
AcDbSpline
210
0.0
220
0.0
230
1.0
 70
    24
 71
     3
 72
     8
 73
     4
 74
     0
 42
0.0000000001
 43
0.0000000001
 12
1.0
 22
0.0
 32
0.0
 13
1.0
 23
0.0
 33
0.0
 40
0.0
 40
0.0
 40
0.0
 40
0.0
 40
1.0
 40
1.0
 40
1.0
 40
1.0
 10
-281.4637
 20
110.4712
 30
0.0
 10
-281.4637
 20
110.4712
 30
0.0
 10
-282.1051
 20
107.5406
 30
0.0
 10
-282.1051
 20
107.5406
 30
0.0
  0
SPLINE
  5
BB
330
1F
100
AcDbEntity
  8
Layer 1
370
    15
100
AcDbSpline
210
0.0
220
0.0
230
1.0
 70
    24
 71
     3
 72
     8
 73
     4
 74
     0
 42
0.0000000001
 43
0.0000000001
 12
1.0
 22
0.0
 32
0.0
 13
1.0
 23
0.0
 33
0.0
 40
0.0
 40
0.0
 40
0.0
 40
0.0
 40
1.0
 40
1.0
 40
1.0
 40
1.0
 10
-282.1051
 20
107.5406
 30
0.0
 10
-282.1051
 20
107.5406
 30
0.0
 10
-278.6861
 20
106.7922
 30
0.0
 10
-278.6861
 20
106.7922
 30
0.0
  0
SPLINE
  5
BC
330
1F
100
AcDbEntity
  8
Layer 1
370
    15
100
AcDbSpline
210
0.0
220
0.0
230
1.0
 70
    24
 71
     3
 72
     8
 73
     4
 74
     0
 42
0.0000000001
 43
0.0000000001
 12
1.0
 22
0.0
 32
0.0
 13
1.0
 23
0.0
 33
0.0
 40
0.0
 40
0.0
 40
0.0
 40
0.0
 40
1.0
 40
1.0
 40
1.0
 40
1.0
 10
-278.6861
 20
106.7922
 30
0.0
 10
-278.6861
 20
106.7922
 30
0.0
 10
-283.3996
 20
85.2587
 30
0.0
 10
-283.3996
 20
85.2587
 30
0.0
  0
SPLINE
  5
BD
330
1F
100
AcDbEntity
  8
Layer 1
370
    15
100
AcDbSpline
210
0.0
220
0.0
230
1.0
 70
     8
 71
     3
 72
     8
 73
     4
 74
     0
 42
0.0000000001
 43
0.0000000001
 12
1.0
 22
0.0
 32
0.0
 13
1.0
 23
0.0
 33
0.0
 40
0.0
 40
0.0
 40
0.0
 40
0.0
 40
1.0
 40
1.0
 40
1.0
 40
1.0
 10
-281.6757
 20
81.8706
 30
0.0
 10
-282.9838
 20
82.4454
 30
0.0
 10
-283.7051
 20
83.8629
 30
0.0
 10
-283.3996
 20
85.2587
 30
0.0
  0
SPLINE
  5
BE
330
1F
100
AcDbEntity
  8
Layer 1
370
    15
100
AcDbSpline
210
0.0
220
0.0
230
1.0
 70
    24
 71
     3
 72
     8
 73
     4
 74
     0
 42
0.0000000001
 43
0.0000000001
 12
1.0
 22
0.0
 32
0.0
 13
1.0
 23
0.0
 33
0.0
 40
0.0
 40
0.0
 40
0.0
 40
0.0
 40
1.0
 40
1.0
 40
1.0
 40
1.0
 10
-281.6757
 20
81.8706
 30
0.0
 10
-281.6757
 20
81.8706
 30
0.0
 10
-216.0475
 20
53.0373
 30
0.0
 10
-216.0475
 20
53.0373
 30
0.0
  0
SPLINE
  5
BF
330
1F
100
AcDbEntity
  8
Layer 1
370
    15
100
AcDbSpline
210
0.0
220
0.0
230
1.0
 70
     8
 71
     3
 72
     8
 73
     4
 74
     0
 42
0.0000000001
 43
0.0000000001
 12
1.0
 22
0.0
 32
0.0
 13
1.0
 23
0.0
 33
0.0
 40
0.0
 40
0.0
 40
0.0
 40
0.0
 40
1.0
 40
1.0
 40
1.0
 40
1.0
 10
-214.5403
 20
52.5465
 30
0.0
 10
-215.0577
 20
52.6598
 30
0.0
 10
-215.5625
 20
52.8242
 30
0.0
 10
-216.0475
 20
53.0373
 30
0.0
  0
SPLINE
  5
C0
330
1F
100
AcDbEntity
  8
Layer 1
370
    15
100
AcDbSpline
210
0.0
220
0.0
230
1.0
 70
    24
 71
     3
 72
     8
 73
     4
 74
     0
 42
0.0000000001
 43
0.0000000001
 12
1.0
 22
0.0
 32
0.0
 13
1.0
 23
0.0
 33
0.0
 40
0.0
 40
0.0
 40
0.0
 40
0.0
 40
1.0
 40
1.0
 40
1.0
 40
1.0
 10
-214.5403
 20
52.5465
 30
0.0
 10
-214.5403
 20
52.5465
 30
0.0
 10
-206.0039
 20
50.678
 30
0.0
 10
-206.0039
 20
50.678
 30
0.0
  0
SPLINE
  5
C1
330
1F
100
AcDbEntity
  8
Layer 1
370
    15
100
AcDbSpline
210
0.0
220
0.0
230
1.0
 70
    24
 71
     3
 72
     8
 73
     4
 74
     0
 42
0.0000000001
 43
0.0000000001
 12
1.0
 22
0.0
 32
0.0
 13
1.0
 23
0.0
 33
0.0
 40
0.0
 40
0.0
 40
0.0
 40
0.0
 40
1.0
 40
1.0
 40
1.0
 40
1.0
 10
-206.0039
 20
50.678
 30
0.0
 10
-206.0039
 20
50.678
 30
0.0
 10
-206.6935
 20
47.5274
 30
0.0
 10
-206.6935
 20
47.5274
 30
0.0
  0
SPLINE
  5
C2
330
1F
100
AcDbEntity
  8
Layer 1
370
    15
100
AcDbSpline
210
0.0
220
0.0
230
1.0
 70
    24
 71
     3
 72
     8
 73
     4
 74
     0
 42
0.0000000001
 43
0.0000000001
 12
1.0
 22
0.0
 32
0.0
 13
1.0
 23
0.0
 33
0.0
 40
0.0
 40
0.0
 40
0.0
 40
0.0
 40
1.0
 40
1.0
 40
1.0
 40
1.0
 10
-206.6935
 20
47.5274
 30
0.0
 10
-206.6935
 20
47.5274
 30
0.0
 10
-211.8535
 20
48.6569
 30
0.0
 10
-211.8535
 20
48.6569
 30
0.0
  0
SPLINE
  5
C3
330
1F
100
AcDbEntity
  8
Layer 1
370
    15
100
AcDbSpline
210
0.0
220
0.0
230
1.0
 70
     8
 71
     3
 72
     8
 73
     4
 74
     0
 42
0.0000000001
 43
0.0000000001
 12
1.0
 22
0.0
 32
0.0
 13
1.0
 23
0.0
 33
0.0
 40
0.0
 40
0.0
 40
0.0
 40
0.0
 40
1.0
 40
1.0
 40
1.0
 40
1.0
 10
-214.6564
 20
47.2656
 30
0.0
 10
-214.1638
 20
48.3291
 30
0.0
 10
-212.9984
 20
48.9075
 30
0.0
 10
-211.8535
 20
48.6569
 30
0.0
  0
SPLINE
  5
C4
330
1F
100
AcDbEntity
  8
Layer 1
370
    15
100
AcDbSpline
210
0.0
220
0.0
230
1.0
 70
    24
 71
     3
 72
     8
 73
     4
 74
     0
 42
0.0000000001
 43
0.0000000001
 12
1.0
 22
0.0
 32
0.0
 13
1.0
 23
0.0
 33
0.0
 40
0.0
 40
0.0
 40
0.0
 40
0.0
 40
1.0
 40
1.0
 40
1.0
 40
1.0
 10
-214.6564
 20
47.2656
 30
0.0
 10
-214.6564
 20
47.2656
 30
0.0
 10
-215.837
 20
44.7175
 30
0.0
 10
-215.837
 20
44.7175
 30
0.0
  0
SPLINE
  5
C5
330
1F
100
AcDbEntity
  8
Layer 1
370
    15
100
AcDbSpline
210
0.0
220
0.0
230
1.0
 70
     8
 71
     3
 72
     8
 73
     4
 74
     0
 42
0.0000000001
 43
0.0000000001
 12
1.0
 22
0.0
 32
0.0
 13
1.0
 23
0.0
 33
0.0
 40
0.0
 40
0.0
 40
0.0
 40
0.0
 40
1.0
 40
1.0
 40
1.0
 40
1.0
 10
-215.837
 20
44.7175
 30
0.0
 10
-216.4174
 20
43.4648
 30
0.0
 10
-217.9035
 20
42.9197
 30
0.0
 10
-219.1563
 20
43.5001
 30
0.0
  0
SPLINE
  5
C6
330
1F
100
AcDbEntity
  8
Layer 1
370
    15
100
AcDbSpline
210
0.0
220
0.0
230
1.0
 70
    24
 71
     3
 72
     8
 73
     4
 74
     0
 42
0.0000000001
 43
0.0000000001
 12
1.0
 22
0.0
 32
0.0
 13
1.0
 23
0.0
 33
0.0
 40
0.0
 40
0.0
 40
0.0
 40
0.0
 40
1.0
 40
1.0
 40
1.0
 40
1.0
 10
-219.1563
 20
43.5001
 30
0.0
 10
-219.1563
 20
43.5001
 30
0.0
 10
-224.8133
 20
46.1211
 30
0.0
 10
-224.8133
 20
46.1211
 30
0.0
  0
SPLINE
  5
C7
330
1F
100
AcDbEntity
  8
Layer 1
370
    15
100
AcDbSpline
210
0.0
220
0.0
230
1.0
 70
    24
 71
     3
 72
     8
 73
     4
 74
     0
 42
0.0000000001
 43
0.0000000001
 12
1.0
 22
0.0
 32
0.0
 13
1.0
 23
0.0
 33
0.0
 40
0.0
 40
0.0
 40
0.0
 40
0.0
 40
1.0
 40
1.0
 40
1.0
 40
1.0
 10
-224.8133
 20
46.1211
 30
0.0
 10
-224.8133
 20
46.1211
 30
0.0
 10
-224.349
 20
48.2422
 30
0.0
 10
-224.349
 20
48.2422
 30
0.0
  0
SPLINE
  5
C8
330
1F
100
AcDbEntity
  8
Layer 1
370
    15
100
AcDbSpline
210
0.0
220
0.0
230
1.0
 70
     8
 71
     3
 72
    16
 73
    12
 74
     0
 42
0.0000000001
 43
0.0000000001
 12
1.0
 22
0.0
 32
0.0
 13
1.0
 23
0.0
 33
0.0
 40
0.0
 40
0.0
 40
0.0
 40
0.0
 40
0.25
 40
0.25
 40
0.25
 40
0.25
 40
0.5
 40
0.5
 40
0.5
 40
0.5
 40
1.0
 40
1.0
 40
1.0
 40
1.0
 10
-225.5213
 20
48.4988
 30
0.0
 10
-225.4754
 20
48.7082
 30
0.0
 10
-225.3213
 20
48.8773
 30
0.0
 10
-225.1171
 20
48.9422
 30
0.0
 10
-225.1171
 20
48.9422
 30
0.0
 10
-224.9129
 20
49.0072
 30
0.0
 10
-224.6894
 20
48.9583
 30
0.0
 10
-224.531
 20
48.8139
 30
0.0
 10
-224.531
 20
48.8139
 30
0.0
 10
-224.3726
 20
48.6696
 30
0.0
 10
-224.3032
 20
48.4516
 30
0.0
 10
-224.349
 20
48.2422
 30
0.0
  0
SPLINE
  5
C9
330
1F
100
AcDbEntity
  8
Layer 1
370
    15
100
AcDbSpline
210
0.0
220
0.0
230
1.0
 70
    24
 71
     3
 72
     8
 73
     4
 74
     0
 42
0.0000000001
 43
0.0000000001
 12
1.0
 22
0.0
 32
0.0
 13
1.0
 23
0.0
 33
0.0
 40
0.0
 40
0.0
 40
0.0
 40
0.0
 40
1.0
 40
1.0
 40
1.0
 40
1.0
 10
-225.5213
 20
48.4988
 30
0.0
 10
-225.5213
 20
48.4988
 30
0.0
 10
-225.9286
 20
46.6378
 30
0.0
 10
-225.9286
 20
46.6378
 30
0.0
  0
SPLINE
  5
CA
330
1F
100
AcDbEntity
  8
Layer 1
370
    15
100
AcDbSpline
210
0.0
220
0.0
230
1.0
 70
    24
 71
     3
 72
     8
 73
     4
 74
     0
 42
0.0000000001
 43
0.0000000001
 12
1.0
 22
0.0
 32
0.0
 13
1.0
 23
0.0
 33
0.0
 40
0.0
 40
0.0
 40
0.0
 40
0.0
 40
1.0
 40
1.0
 40
1.0
 40
1.0
 10
-225.9286
 20
46.6378
 30
0.0
 10
-225.9286
 20
46.6378
 30
0.0
 10
-236.8957
 20
51.7191
 30
0.0
 10
-236.8957
 20
51.7191
 30
0.0
  0
SPLINE
  5
CB
330
1F
100
AcDbEntity
  8
Layer 1
370
    15
100
AcDbSpline
210
0.0
220
0.0
230
1.0
 70
    24
 71
     3
 72
     8
 73
     4
 74
     0
 42
0.0000000001
 43
0.0000000001
 12
1.0
 22
0.0
 32
0.0
 13
1.0
 23
0.0
 33
0.0
 40
0.0
 40
0.0
 40
0.0
 40
0.0
 40
1.0
 40
1.0
 40
1.0
 40
1.0
 10
-236.8957
 20
51.7191
 30
0.0
 10
-236.8957
 20
51.7191
 30
0.0
 10
-236.4233
 20
53.8774
 30
0.0
 10
-236.4233
 20
53.8774
 30
0.0
  0
SPLINE
  5
CC
330
1F
100
AcDbEntity
  8
Layer 1
370
    15
100
AcDbSpline
210
0.0
220
0.0
230
1.0
 70
     8
 71
     3
 72
    16
 73
    12
 74
     0
 42
0.0000000001
 43
0.0000000001
 12
1.0
 22
0.0
 32
0.0
 13
1.0
 23
0.0
 33
0.0
 40
0.0
 40
0.0
 40
0.0
 40
0.0
 40
0.25
 40
0.25
 40
0.25
 40
0.25
 40
0.5
 40
0.5
 40
0.5
 40
0.5
 40
1.0
 40
1.0
 40
1.0
 40
1.0
 10
-237.5955
 20
54.134
 30
0.0
 10
-237.5497
 20
54.3435
 30
0.0
 10
-237.3956
 20
54.5124
 30
0.0
 10
-237.1914
 20
54.5775
 30
0.0
 10
-237.1914
 20
54.5775
 30
0.0
 10
-236.9871
 20
54.6425
 30
0.0
 10
-236.7636
 20
54.5936
 30
0.0
 10
-236.6053
 20
54.4492
 30
0.0
 10
-236.6053
 20
54.4492
 30
0.0
 10
-236.4469
 20
54.3048
 30
0.0
 10
-236.3774
 20
54.0869
 30
0.0
 10
-236.4233
 20
53.8774
 30
0.0
  0
SPLINE
  5
CD
330
1F
100
AcDbEntity
  8
Layer 1
370
    15
100
AcDbSpline
210
0.0
220
0.0
230
1.0
 70
    24
 71
     3
 72
     8
 73
     4
 74
     0
 42
0.0000000001
 43
0.0000000001
 12
1.0
 22
0.0
 32
0.0
 13
1.0
 23
0.0
 33
0.0
 40
0.0
 40
0.0
 40
0.0
 40
0.0
 40
1.0
 40
1.0
 40
1.0
 40
1.0
 10
-237.5955
 20
54.134
 30
0.0
 10
-237.5955
 20
54.134
 30
0.0
 10
-238.011
 20
52.2359
 30
0.0
 10
-238.011
 20
52.2359
 30
0.0
  0
SPLINE
  5
CE
330
1F
100
AcDbEntity
  8
Layer 1
370
    15
100
AcDbSpline
210
0.0
220
0.0
230
1.0
 70
    24
 71
     3
 72
     8
 73
     4
 74
     0
 42
0.0000000001
 43
0.0000000001
 12
1.0
 22
0.0
 32
0.0
 13
1.0
 23
0.0
 33
0.0
 40
0.0
 40
0.0
 40
0.0
 40
0.0
 40
1.0
 40
1.0
 40
1.0
 40
1.0
 10
-238.011
 20
52.2359
 30
0.0
 10
-238.011
 20
52.2359
 30
0.0
 10
-248.9782
 20
57.3171
 30
0.0
 10
-248.9782
 20
57.3171
 30
0.0
  0
SPLINE
  5
CF
330
1F
100
AcDbEntity
  8
Layer 1
370
    15
100
AcDbSpline
210
0.0
220
0.0
230
1.0
 70
    24
 71
     3
 72
     8
 73
     4
 74
     0
 42
0.0000000001
 43
0.0000000001
 12
1.0
 22
0.0
 32
0.0
 13
1.0
 23
0.0
 33
0.0
 40
0.0
 40
0.0
 40
0.0
 40
0.0
 40
1.0
 40
1.0
 40
1.0
 40
1.0
 10
-248.9782
 20
57.3171
 30
0.0
 10
-248.9782
 20
57.3171
 30
0.0
 10
-248.4976
 20
59.5127
 30
0.0
 10
-248.4976
 20
59.5127
 30
0.0
  0
SPLINE
  5
D0
330
1F
100
AcDbEntity
  8
Layer 1
370
    15
100
AcDbSpline
210
0.0
220
0.0
230
1.0
 70
     8
 71
     3
 72
    16
 73
    12
 74
     0
 42
0.0000000001
 43
0.0000000001
 12
1.0
 22
0.0
 32
0.0
 13
1.0
 23
0.0
 33
0.0
 40
0.0
 40
0.0
 40
0.0
 40
0.0
 40
0.25
 40
0.25
 40
0.25
 40
0.25
 40
0.5
 40
0.5
 40
0.5
 40
0.5
 40
1.0
 40
1.0
 40
1.0
 40
1.0
 10
-249.6698
 20
59.7693
 30
0.0
 10
-249.624
 20
59.9786
 30
0.0
 10
-249.4699
 20
60.1477
 30
0.0
 10
-249.2657
 20
60.2127
 30
0.0
 10
-249.2657
 20
60.2127
 30
0.0
 10
-249.0614
 20
60.2778
 30
0.0
 10
-248.8379
 20
60.2288
 30
0.0
 10
-248.6795
 20
60.0844
 30
0.0
 10
-248.6795
 20
60.0844
 30
0.0
 10
-248.5211
 20
59.94
 30
0.0
 10
-248.4518
 20
59.722
 30
0.0
 10
-248.4976
 20
59.5127
 30
0.0
  0
SPLINE
  5
D1
330
1F
100
AcDbEntity
  8
Layer 1
370
    15
100
AcDbSpline
210
0.0
220
0.0
230
1.0
 70
    24
 71
     3
 72
     8
 73
     4
 74
     0
 42
0.0000000001
 43
0.0000000001
 12
1.0
 22
0.0
 32
0.0
 13
1.0
 23
0.0
 33
0.0
 40
0.0
 40
0.0
 40
0.0
 40
0.0
 40
1.0
 40
1.0
 40
1.0
 40
1.0
 10
-249.6698
 20
59.7693
 30
0.0
 10
-249.6698
 20
59.7693
 30
0.0
 10
-250.0935
 20
57.8338
 30
0.0
 10
-250.0935
 20
57.8338
 30
0.0
  0
SPLINE
  5
D2
330
1F
100
AcDbEntity
  8
Layer 1
370
    15
100
AcDbSpline
210
0.0
220
0.0
230
1.0
 70
    24
 71
     3
 72
     8
 73
     4
 74
     0
 42
0.0000000001
 43
0.0000000001
 12
1.0
 22
0.0
 32
0.0
 13
1.0
 23
0.0
 33
0.0
 40
0.0
 40
0.0
 40
0.0
 40
0.0
 40
1.0
 40
1.0
 40
1.0
 40
1.0
 10
-250.0935
 20
57.8338
 30
0.0
 10
-250.0935
 20
57.8338
 30
0.0
 10
-261.0606
 20
62.915
 30
0.0
 10
-261.0606
 20
62.915
 30
0.0
  0
SPLINE
  5
D3
330
1F
100
AcDbEntity
  8
Layer 1
370
    15
100
AcDbSpline
210
0.0
220
0.0
230
1.0
 70
    24
 71
     3
 72
     8
 73
     4
 74
     0
 42
0.0000000001
 43
0.0000000001
 12
1.0
 22
0.0
 32
0.0
 13
1.0
 23
0.0
 33
0.0
 40
0.0
 40
0.0
 40
0.0
 40
0.0
 40
1.0
 40
1.0
 40
1.0
 40
1.0
 10
-261.0606
 20
62.915
 30
0.0
 10
-261.0606
 20
62.915
 30
0.0
 10
-260.5719
 20
65.148
 30
0.0
 10
-260.5719
 20
65.148
 30
0.0
  0
SPLINE
  5
D4
330
1F
100
AcDbEntity
  8
Layer 1
370
    15
100
AcDbSpline
210
0.0
220
0.0
230
1.0
 70
     8
 71
     3
 72
    16
 73
    12
 74
     0
 42
0.0000000001
 43
0.0000000001
 12
1.0
 22
0.0
 32
0.0
 13
1.0
 23
0.0
 33
0.0
 40
0.0
 40
0.0
 40
0.0
 40
0.0
 40
0.25
 40
0.25
 40
0.25
 40
0.25
 40
0.5
 40
0.5
 40
0.5
 40
0.5
 40
1.0
 40
1.0
 40
1.0
 40
1.0
 10
-261.7441
 20
65.4046
 30
0.0
 10
-261.6983
 20
65.6139
 30
0.0
 10
-261.5442
 20
65.783
 30
0.0
 10
-261.3399
 20
65.848
 30
0.0
 10
-261.3399
 20
65.848
 30
0.0
 10
-261.1357
 20
65.913
 30
0.0
 10
-260.9122
 20
65.8641
 30
0.0
 10
-260.7538
 20
65.7197
 30
0.0
 10
-260.7538
 20
65.7197
 30
0.0
 10
-260.5954
 20
65.5753
 30
0.0
 10
-260.526
 20
65.3573
 30
0.0
 10
-260.5719
 20
65.148
 30
0.0
  0
SPLINE
  5
D5
330
1F
100
AcDbEntity
  8
Layer 1
370
    15
100
AcDbSpline
210
0.0
220
0.0
230
1.0
 70
    24
 71
     3
 72
     8
 73
     4
 74
     0
 42
0.0000000001
 43
0.0000000001
 12
1.0
 22
0.0
 32
0.0
 13
1.0
 23
0.0
 33
0.0
 40
0.0
 40
0.0
 40
0.0
 40
0.0
 40
1.0
 40
1.0
 40
1.0
 40
1.0
 10
-261.7441
 20
65.4046
 30
0.0
 10
-261.7441
 20
65.4046
 30
0.0
 10
-262.1759
 20
63.4318
 30
0.0
 10
-262.1759
 20
63.4318
 30
0.0
  0
SPLINE
  5
D6
330
1F
100
AcDbEntity
  8
Layer 1
370
    15
100
AcDbSpline
210
0.0
220
0.0
230
1.0
 70
    24
 71
     3
 72
     8
 73
     4
 74
     0
 42
0.0000000001
 43
0.0000000001
 12
1.0
 22
0.0
 32
0.0
 13
1.0
 23
0.0
 33
0.0
 40
0.0
 40
0.0
 40
0.0
 40
0.0
 40
1.0
 40
1.0
 40
1.0
 40
1.0
 10
-262.1759
 20
63.4318
 30
0.0
 10
-262.1759
 20
63.4318
 30
0.0
 10
-273.1431
 20
68.5131
 30
0.0
 10
-273.1431
 20
68.5131
 30
0.0
  0
SPLINE
  5
D7
330
1F
100
AcDbEntity
  8
Layer 1
370
    15
100
AcDbSpline
210
0.0
220
0.0
230
1.0
 70
    24
 71
     3
 72
     8
 73
     4
 74
     0
 42
0.0000000001
 43
0.0000000001
 12
1.0
 22
0.0
 32
0.0
 13
1.0
 23
0.0
 33
0.0
 40
0.0
 40
0.0
 40
0.0
 40
0.0
 40
1.0
 40
1.0
 40
1.0
 40
1.0
 10
-273.1431
 20
68.5131
 30
0.0
 10
-273.1431
 20
68.5131
 30
0.0
 10
-272.6462
 20
70.7831
 30
0.0
 10
-272.6462
 20
70.7831
 30
0.0
  0
SPLINE
  5
D8
330
1F
100
AcDbEntity
  8
Layer 1
370
    15
100
AcDbSpline
210
0.0
220
0.0
230
1.0
 70
     8
 71
     3
 72
    16
 73
    12
 74
     0
 42
0.0000000001
 43
0.0000000001
 12
1.0
 22
0.0
 32
0.0
 13
1.0
 23
0.0
 33
0.0
 40
0.0
 40
0.0
 40
0.0
 40
0.0
 40
0.25
 40
0.25
 40
0.25
 40
0.25
 40
0.5
 40
0.5
 40
0.5
 40
0.5
 40
1.0
 40
1.0
 40
1.0
 40
1.0
 10
-273.8184
 20
71.0397
 30
0.0
 10
-273.7726
 20
71.2492
 30
0.0
 10
-273.6185
 20
71.4182
 30
0.0
 10
-273.4142
 20
71.4833
 30
0.0
 10
-273.4142
 20
71.4833
 30
0.0
 10
-273.21
 20
71.5482
 30
0.0
 10
-272.9865
 20
71.4993
 30
0.0
 10
-272.8281
 20
71.355
 30
0.0
 10
-272.8281
 20
71.355
 30
0.0
 10
-272.6697
 20
71.2105
 30
0.0
 10
-272.6003
 20
70.9926
 30
0.0
 10
-272.6462
 20
70.7831
 30
0.0
  0
SPLINE
  5
D9
330
1F
100
AcDbEntity
  8
Layer 1
370
    15
100
AcDbSpline
210
0.0
220
0.0
230
1.0
 70
    24
 71
     3
 72
     8
 73
     4
 74
     0
 42
0.0000000001
 43
0.0000000001
 12
1.0
 22
0.0
 32
0.0
 13
1.0
 23
0.0
 33
0.0
 40
0.0
 40
0.0
 40
0.0
 40
0.0
 40
1.0
 40
1.0
 40
1.0
 40
1.0
 10
-273.8184
 20
71.0397
 30
0.0
 10
-273.8184
 20
71.0397
 30
0.0
 10
-274.2584
 20
69.0298
 30
0.0
 10
-274.2584
 20
69.0298
 30
0.0
  0
SPLINE
  5
DA
330
1F
100
AcDbEntity
  8
Layer 1
370
    15
100
AcDbSpline
210
0.0
220
0.0
230
1.0
 70
    24
 71
     3
 72
     8
 73
     4
 74
     0
 42
0.0000000001
 43
0.0000000001
 12
1.0
 22
0.0
 32
0.0
 13
1.0
 23
0.0
 33
0.0
 40
0.0
 40
0.0
 40
0.0
 40
0.0
 40
1.0
 40
1.0
 40
1.0
 40
1.0
 10
-274.2584
 20
69.0298
 30
0.0
 10
-274.2584
 20
69.0298
 30
0.0
 10
-285.2255
 20
74.111
 30
0.0
 10
-285.2255
 20
74.111
 30
0.0
  0
SPLINE
  5
DB
330
1F
100
AcDbEntity
  8
Layer 1
370
    15
100
AcDbSpline
210
0.0
220
0.0
230
1.0
 70
    24
 71
     3
 72
     8
 73
     4
 74
     0
 42
0.0000000001
 43
0.0000000001
 12
1.0
 22
0.0
 32
0.0
 13
1.0
 23
0.0
 33
0.0
 40
0.0
 40
0.0
 40
0.0
 40
0.0
 40
1.0
 40
1.0
 40
1.0
 40
1.0
 10
-285.2255
 20
74.111
 30
0.0
 10
-285.2255
 20
74.111
 30
0.0
 10
-284.7204
 20
76.4184
 30
0.0
 10
-284.7204
 20
76.4184
 30
0.0
  0
SPLINE
  5
DC
330
1F
100
AcDbEntity
  8
Layer 1
370
    15
100
AcDbSpline
210
0.0
220
0.0
230
1.0
 70
     8
 71
     3
 72
    16
 73
    12
 74
     0
 42
0.0000000001
 43
0.0000000001
 12
1.0
 22
0.0
 32
0.0
 13
1.0
 23
0.0
 33
0.0
 40
0.0
 40
0.0
 40
0.0
 40
0.0
 40
0.25
 40
0.25
 40
0.25
 40
0.25
 40
0.5
 40
0.5
 40
0.5
 40
0.5
 40
1.0
 40
1.0
 40
1.0
 40
1.0
 10
-285.8927
 20
76.675
 30
0.0
 10
-285.8468
 20
76.8844
 30
0.0
 10
-285.6927
 20
77.0535
 30
0.0
 10
-285.4885
 20
77.1184
 30
0.0
 10
-285.4885
 20
77.1184
 30
0.0
 10
-285.2843
 20
77.1835
 30
0.0
 10
-285.0608
 20
77.1345
 30
0.0
 10
-284.9024
 20
76.9901
 30
0.0
 10
-284.9024
 20
76.9901
 30
0.0
 10
-284.744
 20
76.8458
 30
0.0
 10
-284.6746
 20
76.6278
 30
0.0
 10
-284.7204
 20
76.4184
 30
0.0
  0
SPLINE
  5
DD
330
1F
100
AcDbEntity
  8
Layer 1
370
    15
100
AcDbSpline
210
0.0
220
0.0
230
1.0
 70
    24
 71
     3
 72
     8
 73
     4
 74
     0
 42
0.0000000001
 43
0.0000000001
 12
1.0
 22
0.0
 32
0.0
 13
1.0
 23
0.0
 33
0.0
 40
0.0
 40
0.0
 40
0.0
 40
0.0
 40
1.0
 40
1.0
 40
1.0
 40
1.0
 10
-285.8927
 20
76.675
 30
0.0
 10
-285.8927
 20
76.675
 30
0.0
 10
-286.3408
 20
74.6278
 30
0.0
 10
-286.3408
 20
74.6278
 30
0.0
  0
SPLINE
  5
DE
330
1F
100
AcDbEntity
  8
Layer 1
370
    15
100
AcDbSpline
210
0.0
220
0.0
230
1.0
 70
    24
 71
     3
 72
     8
 73
     4
 74
     0
 42
0.0000000001
 43
0.0000000001
 12
1.0
 22
0.0
 32
0.0
 13
1.0
 23
0.0
 33
0.0
 40
0.0
 40
0.0
 40
0.0
 40
0.0
 40
1.0
 40
1.0
 40
1.0
 40
1.0
 10
-286.3408
 20
74.6278
 30
0.0
 10
-286.3408
 20
74.6278
 30
0.0
 10
-293.6212
 20
78.0009
 30
0.0
 10
-293.6212
 20
78.0009
 30
0.0
  0
SPLINE
  5
DF
330
1F
100
AcDbEntity
  8
Layer 1
370
    15
100
AcDbSpline
210
0.0
220
0.0
230
1.0
 70
     8
 71
     3
 72
     8
 73
     4
 74
     0
 42
0.0000000001
 43
0.0000000001
 12
1.0
 22
0.0
 32
0.0
 13
1.0
 23
0.0
 33
0.0
 40
0.0
 40
0.0
 40
0.0
 40
0.0
 40
1.0
 40
1.0
 40
1.0
 40
1.0
 10
-293.6212
 20
78.0009
 30
0.0
 10
-294.4719
 20
78.3951
 30
0.0
 10
-294.9347
 20
79.3273
 30
0.0
 10
-294.7342
 20
80.2433
 30
0.0
  0
SPLINE
  5
E0
330
1F
100
AcDbEntity
  8
Layer 1
370
    15
100
AcDbSpline
210
0.0
220
0.0
230
1.0
 70
    24
 71
     3
 72
     8
 73
     4
 74
     0
 42
0.0000000001
 43
0.0000000001
 12
1.0
 22
0.0
 32
0.0
 13
1.0
 23
0.0
 33
0.0
 40
0.0
 40
0.0
 40
0.0
 40
0.0
 40
1.0
 40
1.0
 40
1.0
 40
1.0
 10
-294.7342
 20
80.2433
 30
0.0
 10
-294.7342
 20
80.2433
 30
0.0
 10
-293.6936
 20
84.9971
 30
0.0
 10
-293.6936
 20
84.9971
 30
0.0
  0
SPLINE
  5
E1
330
1F
100
AcDbEntity
  8
Layer 1
370
    15
100
AcDbSpline
210
0.0
220
0.0
230
1.0
 70
    24
 71
     3
 72
     8
 73
     4
 74
     0
 42
0.0000000001
 43
0.0000000001
 12
1.0
 22
0.0
 32
0.0
 13
1.0
 23
0.0
 33
0.0
 40
0.0
 40
0.0
 40
0.0
 40
0.0
 40
1.0
 40
1.0
 40
1.0
 40
1.0
 10
-293.6936
 20
84.9971
 30
0.0
 10
-293.6936
 20
84.9971
 30
0.0
 10
-290.763
 20
84.3556
 30
0.0
 10
-290.763
 20
84.3556
 30
0.0
  0
SPLINE
  5
E2
330
1F
100
AcDbEntity
  8
Layer 1
370
    15
100
AcDbSpline
210
0.0
220
0.0
230
1.0
 70
    24
 71
     3
 72
     8
 73
     4
 74
     0
 42
0.0000000001
 43
0.0000000001
 12
1.0
 22
0.0
 32
0.0
 13
1.0
 23
0.0
 33
0.0
 40
0.0
 40
0.0
 40
0.0
 40
0.0
 40
1.0
 40
1.0
 40
1.0
 40
1.0
 10
-290.763
 20
84.3556
 30
0.0
 10
-290.763
 20
84.3556
 30
0.0
 10
-279.6439
 20
135.1529
 30
0.0
 10
-279.6439
 20
135.1529
 30
0.0
  0
SPLINE
  5
E3
330
1F
100
AcDbEntity
  8
Layer 1
370
    15
100
AcDbSpline
210
0.0
220
0.0
230
1.0
 70
    24
 71
     3
 72
     8
 73
     4
 74
     0
 42
0.0000000001
 43
0.0000000001
 12
1.0
 22
0.0
 32
0.0
 13
1.0
 23
0.0
 33
0.0
 40
0.0
 40
0.0
 40
0.0
 40
0.0
 40
1.0
 40
1.0
 40
1.0
 40
1.0
 10
-279.6439
 20
135.1529
 30
0.0
 10
-279.6439
 20
135.1529
 30
0.0
 10
-282.5745
 20
135.7944
 30
0.0
 10
-282.5745
 20
135.7944
 30
0.0
  0
SPLINE
  5
E4
330
1F
100
AcDbEntity
  8
Layer 1
370
    15
100
AcDbSpline
210
0.0
220
0.0
230
1.0
 70
    24
 71
     3
 72
     8
 73
     4
 74
     0
 42
0.0000000001
 43
0.0000000001
 12
1.0
 22
0.0
 32
0.0
 13
1.0
 23
0.0
 33
0.0
 40
0.0
 40
0.0
 40
0.0
 40
0.0
 40
1.0
 40
1.0
 40
1.0
 40
1.0
 10
-282.5745
 20
135.7944
 30
0.0
 10
-282.5745
 20
135.7944
 30
0.0
 10
-281.5339
 20
140.5483
 30
0.0
 10
-281.5339
 20
140.5483
 30
0.0
  0
SPLINE
  5
E5
330
1F
100
AcDbEntity
  8
Layer 1
370
    15
100
AcDbSpline
210
0.0
220
0.0
230
1.0
 70
     8
 71
     3
 72
     8
 73
     4
 74
     0
 42
0.0000000001
 43
0.0000000001
 12
1.0
 22
0.0
 32
0.0
 13
1.0
 23
0.0
 33
0.0
 40
0.0
 40
0.0
 40
0.0
 40
0.0
 40
1.0
 40
1.0
 40
1.0
 40
1.0
 10
-243.7033
 20
-40.613
 30
0.0
 10
-241.5452
 20
-40.8849
 30
0.0
 10
-239.3614
 20
-40.8849
 30
0.0
 10
-237.2033
 20
-40.613
 30
0.0
  0
SPLINE
  5
E6
330
1F
100
AcDbEntity
  8
Layer 1
370
    15
100
AcDbSpline
210
0.0
220
0.0
230
1.0
 70
     8
 71
     3
 72
     8
 73
     4
 74
     0
 42
0.0000000001
 43
0.0000000001
 12
1.0
 22
0.0
 32
0.0
 13
1.0
 23
0.0
 33
0.0
 40
0.0
 40
0.0
 40
0.0
 40
0.0
 40
1.0
 40
1.0
 40
1.0
 40
1.0
 10
-237.2033
 20
-40.613
 30
0.0
 10
-236.2033
 20
-40.487
 30
0.0
 10
-235.4533
 20
-39.6366
 30
0.0
 10
-235.4533
 20
-38.6287
 30
0.0
  0
SPLINE
  5
E7
330
1F
100
AcDbEntity
  8
Layer 1
370
    15
100
AcDbSpline
210
0.0
220
0.0
230
1.0
 70
    24
 71
     3
 72
     8
 73
     4
 74
     0
 42
0.0000000001
 43
0.0000000001
 12
1.0
 22
0.0
 32
0.0
 13
1.0
 23
0.0
 33
0.0
 40
0.0
 40
0.0
 40
0.0
 40
0.0
 40
1.0
 40
1.0
 40
1.0
 40
1.0
 10
-235.4533
 20
-38.6287
 30
0.0
 10
-235.4533
 20
-38.6287
 30
0.0
 10
-235.4533
 20
-33.8169
 30
0.0
 10
-235.4533
 20
-33.8169
 30
0.0
  0
SPLINE
  5
E8
330
1F
100
AcDbEntity
  8
Layer 1
370
    15
100
AcDbSpline
210
0.0
220
0.0
230
1.0
 70
     8
 71
     3
 72
    12
 73
     8
 74
     0
 42
0.0000000001
 43
0.0000000001
 12
1.0
 22
0.0
 32
0.0
 13
1.0
 23
0.0
 33
0.0
 40
0.0
 40
0.0
 40
0.0
 40
0.0
 40
0.3333333333333333
 40
0.3333333333333333
 40
0.3333333333333333
 40
0.3333333333333333
 40
1.0
 40
1.0
 40
1.0
 40
1.0
 10
-221.4533
 20
-19.8169
 30
0.0
 10
-225.1663
 20
-19.8169
 30
0.0
 10
-228.7273
 20
-21.2919
 30
0.0
 10
-231.3528
 20
-23.9174
 30
0.0
 10
-231.3528
 20
-23.9174
 30
0.0
 10
-233.9783
 20
-26.5429
 30
0.0
 10
-235.4533
 20
-30.1039
 30
0.0
 10
-235.4533
 20
-33.8169
 30
0.0
  0
SPLINE
  5
E9
330
1F
100
AcDbEntity
  8
Layer 1
370
    15
100
AcDbSpline
210
0.0
220
0.0
230
1.0
 70
    24
 71
     3
 72
     8
 73
     4
 74
     0
 42
0.0000000001
 43
0.0000000001
 12
1.0
 22
0.0
 32
0.0
 13
1.0
 23
0.0
 33
0.0
 40
0.0
 40
0.0
 40
0.0
 40
0.0
 40
1.0
 40
1.0
 40
1.0
 40
1.0
 10
-221.4533
 20
-19.8169
 30
0.0
 10
-221.4533
 20
-19.8169
 30
0.0
 10
-216.6415
 20
-19.8169
 30
0.0
 10
-216.6415
 20
-19.8169
 30
0.0
  0
SPLINE
  5
EA
330
1F
100
AcDbEntity
  8
Layer 1
370
    15
100
AcDbSpline
210
0.0
220
0.0
230
1.0
 70
     8
 71
     3
 72
     8
 73
     4
 74
     0
 42
0.0000000001
 43
0.0000000001
 12
1.0
 22
0.0
 32
0.0
 13
1.0
 23
0.0
 33
0.0
 40
0.0
 40
0.0
 40
0.0
 40
0.0
 40
1.0
 40
1.0
 40
1.0
 40
1.0
 10
-216.6415
 20
-19.8169
 30
0.0
 10
-215.6336
 20
-19.8169
 30
0.0
 10
-214.7832
 20
-19.0669
 30
0.0
 10
-214.6572
 20
-18.0669
 30
0.0
  0
SPLINE
  5
EB
330
1F
100
AcDbEntity
  8
Layer 1
370
    15
100
AcDbSpline
210
0.0
220
0.0
230
1.0
 70
     8
 71
     3
 72
     8
 73
     4
 74
     0
 42
0.0000000001
 43
0.0000000001
 12
1.0
 22
0.0
 32
0.0
 13
1.0
 23
0.0
 33
0.0
 40
0.0
 40
0.0
 40
0.0
 40
0.0
 40
1.0
 40
1.0
 40
1.0
 40
1.0
 10
-214.6572
 20
-18.0669
 30
0.0
 10
-214.3853
 20
-15.9088
 30
0.0
 10
-214.3853
 20
-13.725
 30
0.0
 10
-214.6572
 20
-11.5669
 30
0.0
  0
SPLINE
  5
EC
330
1F
100
AcDbEntity
  8
Layer 1
370
    15
100
AcDbSpline
210
0.0
220
0.0
230
1.0
 70
     8
 71
     3
 72
     8
 73
     4
 74
     0
 42
0.0000000001
 43
0.0000000001
 12
1.0
 22
0.0
 32
0.0
 13
1.0
 23
0.0
 33
0.0
 40
0.0
 40
0.0
 40
0.0
 40
0.0
 40
1.0
 40
1.0
 40
1.0
 40
1.0
 10
-214.6572
 20
-11.5669
 30
0.0
 10
-214.7832
 20
-10.5669
 30
0.0
 10
-215.6336
 20
-9.8169
 30
0.0
 10
-216.6415
 20
-9.8169
 30
0.0
  0
SPLINE
  5
ED
330
1F
100
AcDbEntity
  8
Layer 1
370
    15
100
AcDbSpline
210
0.0
220
0.0
230
1.0
 70
    24
 71
     3
 72
     8
 73
     4
 74
     0
 42
0.0000000001
 43
0.0000000001
 12
1.0
 22
0.0
 32
0.0
 13
1.0
 23
0.0
 33
0.0
 40
0.0
 40
0.0
 40
0.0
 40
0.0
 40
1.0
 40
1.0
 40
1.0
 40
1.0
 10
-216.6415
 20
-9.8169
 30
0.0
 10
-216.6415
 20
-9.8169
 30
0.0
 10
-221.4533
 20
-9.8169
 30
0.0
 10
-221.4533
 20
-9.8169
 30
0.0
  0
SPLINE
  5
EE
330
1F
100
AcDbEntity
  8
Layer 1
370
    15
100
AcDbSpline
210
0.0
220
0.0
230
1.0
 70
     8
 71
     3
 72
    12
 73
     8
 74
     0
 42
0.0000000001
 43
0.0000000001
 12
1.0
 22
0.0
 32
0.0
 13
1.0
 23
0.0
 33
0.0
 40
0.0
 40
0.0
 40
0.0
 40
0.0
 40
0.3333333333333333
 40
0.3333333333333333
 40
0.3333333333333333
 40
0.3333333333333333
 40
1.0
 40
1.0
 40
1.0
 40
1.0
 10
-235.4533
 20
4.1831
 30
0.0
 10
-235.4533
 20
0.4701
 30
0.0
 10
-233.9783
 20
-3.0909
 30
0.0
 10
-231.3528
 20
-5.7164
 30
0.0
 10
-231.3528
 20
-5.7164
 30
0.0
 10
-228.7273
 20
-8.3419
 30
0.0
 10
-225.1663
 20
-9.8169
 30
0.0
 10
-221.4533
 20
-9.8169
 30
0.0
  0
SPLINE
  5
EF
330
1F
100
AcDbEntity
  8
Layer 1
370
    15
100
AcDbSpline
210
0.0
220
0.0
230
1.0
 70
    24
 71
     3
 72
     8
 73
     4
 74
     0
 42
0.0000000001
 43
0.0000000001
 12
1.0
 22
0.0
 32
0.0
 13
1.0
 23
0.0
 33
0.0
 40
0.0
 40
0.0
 40
0.0
 40
0.0
 40
1.0
 40
1.0
 40
1.0
 40
1.0
 10
-235.4533
 20
4.1831
 30
0.0
 10
-235.4533
 20
4.1831
 30
0.0
 10
-235.4533
 20
8.9949
 30
0.0
 10
-235.4533
 20
8.9949
 30
0.0
  0
SPLINE
  5
F0
330
1F
100
AcDbEntity
  8
Layer 1
370
    15
100
AcDbSpline
210
0.0
220
0.0
230
1.0
 70
     8
 71
     3
 72
     8
 73
     4
 74
     0
 42
0.0000000001
 43
0.0000000001
 12
1.0
 22
0.0
 32
0.0
 13
1.0
 23
0.0
 33
0.0
 40
0.0
 40
0.0
 40
0.0
 40
0.0
 40
1.0
 40
1.0
 40
1.0
 40
1.0
 10
-235.4533
 20
8.9949
 30
0.0
 10
-235.4533
 20
10.0028
 30
0.0
 10
-236.2033
 20
10.8532
 30
0.0
 10
-237.2033
 20
10.9792
 30
0.0
  0
SPLINE
  5
F1
330
1F
100
AcDbEntity
  8
Layer 1
370
    15
100
AcDbSpline
210
0.0
220
0.0
230
1.0
 70
     8
 71
     3
 72
     8
 73
     4
 74
     0
 42
0.0000000001
 43
0.0000000001
 12
1.0
 22
0.0
 32
0.0
 13
1.0
 23
0.0
 33
0.0
 40
0.0
 40
0.0
 40
0.0
 40
0.0
 40
1.0
 40
1.0
 40
1.0
 40
1.0
 10
-237.2033
 20
10.9792
 30
0.0
 10
-239.3614
 20
11.2511
 30
0.0
 10
-241.5451
 20
11.2511
 30
0.0
 10
-243.7032
 20
10.9792
 30
0.0
  0
SPLINE
  5
F2
330
1F
100
AcDbEntity
  8
Layer 1
370
    15
100
AcDbSpline
210
0.0
220
0.0
230
1.0
 70
     8
 71
     3
 72
     8
 73
     4
 74
     0
 42
0.0000000001
 43
0.0000000001
 12
1.0
 22
0.0
 32
0.0
 13
1.0
 23
0.0
 33
0.0
 40
0.0
 40
0.0
 40
0.0
 40
0.0
 40
1.0
 40
1.0
 40
1.0
 40
1.0
 10
-243.7033
 20
10.9792
 30
0.0
 10
-244.7033
 20
10.8532
 30
0.0
 10
-245.4533
 20
10.0028
 30
0.0
 10
-245.4533
 20
8.9949
 30
0.0
  0
SPLINE
  5
F3
330
1F
100
AcDbEntity
  8
Layer 1
370
    15
100
AcDbSpline
210
0.0
220
0.0
230
1.0
 70
    24
 71
     3
 72
     8
 73
     4
 74
     0
 42
0.0000000001
 43
0.0000000001
 12
1.0
 22
0.0
 32
0.0
 13
1.0
 23
0.0
 33
0.0
 40
0.0
 40
0.0
 40
0.0
 40
0.0
 40
1.0
 40
1.0
 40
1.0
 40
1.0
 10
-245.4533
 20
8.9949
 30
0.0
 10
-245.4533
 20
8.9949
 30
0.0
 10
-245.4533
 20
4.1831
 30
0.0
 10
-245.4533
 20
4.1831
 30
0.0
  0
SPLINE
  5
F4
330
1F
100
AcDbEntity
  8
Layer 1
370
    15
100
AcDbSpline
210
0.0
220
0.0
230
1.0
 70
     8
 71
     3
 72
    12
 73
     8
 74
     0
 42
0.0000000001
 43
0.0000000001
 12
1.0
 22
0.0
 32
0.0
 13
1.0
 23
0.0
 33
0.0
 40
0.0
 40
0.0
 40
0.0
 40
0.0
 40
0.3333333333333333
 40
0.3333333333333333
 40
0.3333333333333333
 40
0.3333333333333333
 40
1.0
 40
1.0
 40
1.0
 40
1.0
 10
-259.4533
 20
-9.8169
 30
0.0
 10
-255.7403
 20
-9.8169
 30
0.0
 10
-252.1793
 20
-8.3419
 30
0.0
 10
-249.5538
 20
-5.7164
 30
0.0
 10
-249.5538
 20
-5.7164
 30
0.0
 10
-246.9283
 20
-3.0909
 30
0.0
 10
-245.4533
 20
0.4701
 30
0.0
 10
-245.4533
 20
4.1831
 30
0.0
  0
SPLINE
  5
F5
330
1F
100
AcDbEntity
  8
Layer 1
370
    15
100
AcDbSpline
210
0.0
220
0.0
230
1.0
 70
    24
 71
     3
 72
     8
 73
     4
 74
     0
 42
0.0000000001
 43
0.0000000001
 12
1.0
 22
0.0
 32
0.0
 13
1.0
 23
0.0
 33
0.0
 40
0.0
 40
0.0
 40
0.0
 40
0.0
 40
1.0
 40
1.0
 40
1.0
 40
1.0
 10
-259.4533
 20
-9.8169
 30
0.0
 10
-259.4533
 20
-9.8169
 30
0.0
 10
-264.2651
 20
-9.8169
 30
0.0
 10
-264.2651
 20
-9.8169
 30
0.0
  0
SPLINE
  5
F6
330
1F
100
AcDbEntity
  8
Layer 1
370
    15
100
AcDbSpline
210
0.0
220
0.0
230
1.0
 70
     8
 71
     3
 72
     8
 73
     4
 74
     0
 42
0.0000000001
 43
0.0000000001
 12
1.0
 22
0.0
 32
0.0
 13
1.0
 23
0.0
 33
0.0
 40
0.0
 40
0.0
 40
0.0
 40
0.0
 40
1.0
 40
1.0
 40
1.0
 40
1.0
 10
-264.2651
 20
-9.8169
 30
0.0
 10
-265.273
 20
-9.8169
 30
0.0
 10
-266.1234
 20
-10.5669
 30
0.0
 10
-266.2494
 20
-11.5669
 30
0.0
  0
SPLINE
  5
F7
330
1F
100
AcDbEntity
  8
Layer 1
370
    15
100
AcDbSpline
210
0.0
220
0.0
230
1.0
 70
     8
 71
     3
 72
     8
 73
     4
 74
     0
 42
0.0000000001
 43
0.0000000001
 12
1.0
 22
0.0
 32
0.0
 13
1.0
 23
0.0
 33
0.0
 40
0.0
 40
0.0
 40
0.0
 40
0.0
 40
1.0
 40
1.0
 40
1.0
 40
1.0
 10
-266.2494
 20
-11.5669
 30
0.0
 10
-266.5213
 20
-13.725
 30
0.0
 10
-266.5213
 20
-15.9088
 30
0.0
 10
-266.2494
 20
-18.0669
 30
0.0
  0
SPLINE
  5
F8
330
1F
100
AcDbEntity
  8
Layer 1
370
    15
100
AcDbSpline
210
0.0
220
0.0
230
1.0
 70
     8
 71
     3
 72
     8
 73
     4
 74
     0
 42
0.0000000001
 43
0.0000000001
 12
1.0
 22
0.0
 32
0.0
 13
1.0
 23
0.0
 33
0.0
 40
0.0
 40
0.0
 40
0.0
 40
0.0
 40
1.0
 40
1.0
 40
1.0
 40
1.0
 10
-266.2494
 20
-18.0669
 30
0.0
 10
-266.1234
 20
-19.0669
 30
0.0
 10
-265.273
 20
-19.8169
 30
0.0
 10
-264.2651
 20
-19.8169
 30
0.0
  0
SPLINE
  5
F9
330
1F
100
AcDbEntity
  8
Layer 1
370
    15
100
AcDbSpline
210
0.0
220
0.0
230
1.0
 70
    24
 71
     3
 72
     8
 73
     4
 74
     0
 42
0.0000000001
 43
0.0000000001
 12
1.0
 22
0.0
 32
0.0
 13
1.0
 23
0.0
 33
0.0
 40
0.0
 40
0.0
 40
0.0
 40
0.0
 40
1.0
 40
1.0
 40
1.0
 40
1.0
 10
-264.2651
 20
-19.8169
 30
0.0
 10
-264.2651
 20
-19.8169
 30
0.0
 10
-259.4533
 20
-19.8169
 30
0.0
 10
-259.4533
 20
-19.8169
 30
0.0
  0
SPLINE
  5
FA
330
1F
100
AcDbEntity
  8
Layer 1
370
    15
100
AcDbSpline
210
0.0
220
0.0
230
1.0
 70
     8
 71
     3
 72
     8
 73
     4
 74
     0
 42
0.0000000001
 43
0.0000000001
 12
1.0
 22
0.0
 32
0.0
 13
1.0
 23
0.0
 33
0.0
 40
0.0
 40
0.0
 40
0.0
 40
0.0
 40
1.0
 40
1.0
 40
1.0
 40
1.0
 10
-245.4533
 20
-33.8169
 30
0.0
 10
-245.4533
 20
-26.0849
 30
0.0
 10
-251.7213
 20
-19.8169
 30
0.0
 10
-259.4532
 20
-19.8169
 30
0.0
  0
SPLINE
  5
FB
330
1F
100
AcDbEntity
  8
Layer 1
370
    15
100
AcDbSpline
210
0.0
220
0.0
230
1.0
 70
    24
 71
     3
 72
     8
 73
     4
 74
     0
 42
0.0000000001
 43
0.0000000001
 12
1.0
 22
0.0
 32
0.0
 13
1.0
 23
0.0
 33
0.0
 40
0.0
 40
0.0
 40
0.0
 40
0.0
 40
1.0
 40
1.0
 40
1.0
 40
1.0
 10
-245.4533
 20
-33.8169
 30
0.0
 10
-245.4533
 20
-33.8169
 30
0.0
 10
-245.4533
 20
-38.6287
 30
0.0
 10
-245.4533
 20
-38.6287
 30
0.0
  0
SPLINE
  5
FC
330
1F
100
AcDbEntity
  8
Layer 1
370
    15
100
AcDbSpline
210
0.0
220
0.0
230
1.0
 70
     8
 71
     3
 72
     8
 73
     4
 74
     0
 42
0.0000000001
 43
0.0000000001
 12
1.0
 22
0.0
 32
0.0
 13
1.0
 23
0.0
 33
0.0
 40
0.0
 40
0.0
 40
0.0
 40
0.0
 40
1.0
 40
1.0
 40
1.0
 40
1.0
 10
-245.4533
 20
-38.6287
 30
0.0
 10
-245.4533
 20
-39.6366
 30
0.0
 10
-244.7033
 20
-40.487
 30
0.0
 10
-243.7033
 20
-40.613
 30
0.0
  0
SPLINE
  5
FD
330
1F
100
AcDbEntity
  8
Layer 1
370
    15
100
AcDbSpline
210
0.0
220
0.0
230
1.0
 70
     8
 71
     3
 72
     8
 73
     4
 74
     0
 42
0.0000000001
 43
0.0000000001
 12
1.0
 22
0.0
 32
0.0
 13
1.0
 23
0.0
 33
0.0
 40
0.0
 40
0.0
 40
0.0
 40
0.0
 40
1.0
 40
1.0
 40
1.0
 40
1.0
 10
-239.4699
 20
-129.1697
 30
0.0
 10
-237.3118
 20
-129.4416
 30
0.0
 10
-235.128
 20
-129.4416
 30
0.0
 10
-232.9699
 20
-129.1697
 30
0.0
  0
SPLINE
  5
FE
330
1F
100
AcDbEntity
  8
Layer 1
370
    15
100
AcDbSpline
210
0.0
220
0.0
230
1.0
 70
     8
 71
     3
 72
     8
 73
     4
 74
     0
 42
0.0000000001
 43
0.0000000001
 12
1.0
 22
0.0
 32
0.0
 13
1.0
 23
0.0
 33
0.0
 40
0.0
 40
0.0
 40
0.0
 40
0.0
 40
1.0
 40
1.0
 40
1.0
 40
1.0
 10
-232.9699
 20
-129.1697
 30
0.0
 10
-231.9699
 20
-129.0437
 30
0.0
 10
-231.2199
 20
-128.1933
 30
0.0
 10
-231.2199
 20
-127.1854
 30
0.0
  0
SPLINE
  5
FF
330
1F
100
AcDbEntity
  8
Layer 1
370
    15
100
AcDbSpline
210
0.0
220
0.0
230
1.0
 70
    24
 71
     3
 72
     8
 73
     4
 74
     0
 42
0.0000000001
 43
0.0000000001
 12
1.0
 22
0.0
 32
0.0
 13
1.0
 23
0.0
 33
0.0
 40
0.0
 40
0.0
 40
0.0
 40
0.0
 40
1.0
 40
1.0
 40
1.0
 40
1.0
 10
-231.2199
 20
-127.1854
 30
0.0
 10
-231.2199
 20
-127.1854
 30
0.0
 10
-231.2199
 20
-122.3736
 30
0.0
 10
-231.2199
 20
-122.3736
 30
0.0
  0
SPLINE
  5
100
330
1F
100
AcDbEntity
  8
Layer 1
370
    15
100
AcDbSpline
210
0.0
220
0.0
230
1.0
 70
     8
 71
     3
 72
    12
 73
     8
 74
     0
 42
0.0000000001
 43
0.0000000001
 12
1.0
 22
0.0
 32
0.0
 13
1.0
 23
0.0
 33
0.0
 40
0.0
 40
0.0
 40
0.0
 40
0.0
 40
0.3333333333333333
 40
0.3333333333333333
 40
0.3333333333333333
 40
0.3333333333333333
 40
1.0
 40
1.0
 40
1.0
 40
1.0
 10
-217.2199
 20
-108.3736
 30
0.0
 10
-220.9329
 20
-108.3736
 30
0.0
 10
-224.4939
 20
-109.8486
 30
0.0
 10
-227.1194
 20
-112.4741
 30
0.0
 10
-227.1194
 20
-112.4741
 30
0.0
 10
-229.7449
 20
-115.0996
 30
0.0
 10
-231.2199
 20
-118.6606
 30
0.0
 10
-231.2199
 20
-122.3736
 30
0.0
  0
SPLINE
  5
101
330
1F
100
AcDbEntity
  8
Layer 1
370
    15
100
AcDbSpline
210
0.0
220
0.0
230
1.0
 70
    24
 71
     3
 72
     8
 73
     4
 74
     0
 42
0.0000000001
 43
0.0000000001
 12
1.0
 22
0.0
 32
0.0
 13
1.0
 23
0.0
 33
0.0
 40
0.0
 40
0.0
 40
0.0
 40
0.0
 40
1.0
 40
1.0
 40
1.0
 40
1.0
 10
-217.2199
 20
-108.3736
 30
0.0
 10
-217.2199
 20
-108.3736
 30
0.0
 10
-212.4081
 20
-108.3736
 30
0.0
 10
-212.4081
 20
-108.3736
 30
0.0
  0
SPLINE
  5
102
330
1F
100
AcDbEntity
  8
Layer 1
370
    15
100
AcDbSpline
210
0.0
220
0.0
230
1.0
 70
     8
 71
     3
 72
     8
 73
     4
 74
     0
 42
0.0000000001
 43
0.0000000001
 12
1.0
 22
0.0
 32
0.0
 13
1.0
 23
0.0
 33
0.0
 40
0.0
 40
0.0
 40
0.0
 40
0.0
 40
1.0
 40
1.0
 40
1.0
 40
1.0
 10
-212.4081
 20
-108.3736
 30
0.0
 10
-211.4002
 20
-108.3736
 30
0.0
 10
-210.5498
 20
-107.6236
 30
0.0
 10
-210.4238
 20
-106.6236
 30
0.0
  0
SPLINE
  5
103
330
1F
100
AcDbEntity
  8
Layer 1
370
    15
100
AcDbSpline
210
0.0
220
0.0
230
1.0
 70
     8
 71
     3
 72
     8
 73
     4
 74
     0
 42
0.0000000001
 43
0.0000000001
 12
1.0
 22
0.0
 32
0.0
 13
1.0
 23
0.0
 33
0.0
 40
0.0
 40
0.0
 40
0.0
 40
0.0
 40
1.0
 40
1.0
 40
1.0
 40
1.0
 10
-210.4238
 20
-106.6236
 30
0.0
 10
-210.1519
 20
-104.4655
 30
0.0
 10
-210.1519
 20
-102.2817
 30
0.0
 10
-210.4238
 20
-100.1236
 30
0.0
  0
SPLINE
  5
104
330
1F
100
AcDbEntity
  8
Layer 1
370
    15
100
AcDbSpline
210
0.0
220
0.0
230
1.0
 70
     8
 71
     3
 72
     8
 73
     4
 74
     0
 42
0.0000000001
 43
0.0000000001
 12
1.0
 22
0.0
 32
0.0
 13
1.0
 23
0.0
 33
0.0
 40
0.0
 40
0.0
 40
0.0
 40
0.0
 40
1.0
 40
1.0
 40
1.0
 40
1.0
 10
-210.4238
 20
-100.1236
 30
0.0
 10
-210.5498
 20
-99.1236
 30
0.0
 10
-211.4002
 20
-98.3736
 30
0.0
 10
-212.4081
 20
-98.3736
 30
0.0
  0
SPLINE
  5
105
330
1F
100
AcDbEntity
  8
Layer 1
370
    15
100
AcDbSpline
210
0.0
220
0.0
230
1.0
 70
    24
 71
     3
 72
     8
 73
     4
 74
     0
 42
0.0000000001
 43
0.0000000001
 12
1.0
 22
0.0
 32
0.0
 13
1.0
 23
0.0
 33
0.0
 40
0.0
 40
0.0
 40
0.0
 40
0.0
 40
1.0
 40
1.0
 40
1.0
 40
1.0
 10
-212.4081
 20
-98.3736
 30
0.0
 10
-212.4081
 20
-98.3736
 30
0.0
 10
-217.2199
 20
-98.3736
 30
0.0
 10
-217.2199
 20
-98.3736
 30
0.0
  0
SPLINE
  5
106
330
1F
100
AcDbEntity
  8
Layer 1
370
    15
100
AcDbSpline
210
0.0
220
0.0
230
1.0
 70
     8
 71
     3
 72
    12
 73
     8
 74
     0
 42
0.0000000001
 43
0.0000000001
 12
1.0
 22
0.0
 32
0.0
 13
1.0
 23
0.0
 33
0.0
 40
0.0
 40
0.0
 40
0.0
 40
0.0
 40
0.3333333333333333
 40
0.3333333333333333
 40
0.3333333333333333
 40
0.3333333333333333
 40
1.0
 40
1.0
 40
1.0
 40
1.0
 10
-231.2199
 20
-84.3736
 30
0.0
 10
-231.2199
 20
-88.0866
 30
0.0
 10
-229.7449
 20
-91.6476
 30
0.0
 10
-227.1194
 20
-94.2731
 30
0.0
 10
-227.1194
 20
-94.2731
 30
0.0
 10
-224.4939
 20
-96.8986
 30
0.0
 10
-220.9329
 20
-98.3736
 30
0.0
 10
-217.2199
 20
-98.3736
 30
0.0
  0
SPLINE
  5
107
330
1F
100
AcDbEntity
  8
Layer 1
370
    15
100
AcDbSpline
210
0.0
220
0.0
230
1.0
 70
    24
 71
     3
 72
     8
 73
     4
 74
     0
 42
0.0000000001
 43
0.0000000001
 12
1.0
 22
0.0
 32
0.0
 13
1.0
 23
0.0
 33
0.0
 40
0.0
 40
0.0
 40
0.0
 40
0.0
 40
1.0
 40
1.0
 40
1.0
 40
1.0
 10
-231.2199
 20
-84.3736
 30
0.0
 10
-231.2199
 20
-84.3736
 30
0.0
 10
-231.2199
 20
-79.5618
 30
0.0
 10
-231.2199
 20
-79.5618
 30
0.0
  0
SPLINE
  5
108
330
1F
100
AcDbEntity
  8
Layer 1
370
    15
100
AcDbSpline
210
0.0
220
0.0
230
1.0
 70
     8
 71
     3
 72
     8
 73
     4
 74
     0
 42
0.0000000001
 43
0.0000000001
 12
1.0
 22
0.0
 32
0.0
 13
1.0
 23
0.0
 33
0.0
 40
0.0
 40
0.0
 40
0.0
 40
0.0
 40
1.0
 40
1.0
 40
1.0
 40
1.0
 10
-231.2199
 20
-79.5618
 30
0.0
 10
-231.2199
 20
-78.5539
 30
0.0
 10
-231.9699
 20
-77.7035
 30
0.0
 10
-232.9699
 20
-77.5775
 30
0.0
  0
SPLINE
  5
109
330
1F
100
AcDbEntity
  8
Layer 1
370
    15
100
AcDbSpline
210
0.0
220
0.0
230
1.0
 70
     8
 71
     3
 72
     8
 73
     4
 74
     0
 42
0.0000000001
 43
0.0000000001
 12
1.0
 22
0.0
 32
0.0
 13
1.0
 23
0.0
 33
0.0
 40
0.0
 40
0.0
 40
0.0
 40
0.0
 40
1.0
 40
1.0
 40
1.0
 40
1.0
 10
-232.9699
 20
-77.5775
 30
0.0
 10
-235.128
 20
-77.3056
 30
0.0
 10
-237.3117
 20
-77.3056
 30
0.0
 10
-239.4698
 20
-77.5775
 30
0.0
  0
SPLINE
  5
10A
330
1F
100
AcDbEntity
  8
Layer 1
370
    15
100
AcDbSpline
210
0.0
220
0.0
230
1.0
 70
     8
 71
     3
 72
     8
 73
     4
 74
     0
 42
0.0000000001
 43
0.0000000001
 12
1.0
 22
0.0
 32
0.0
 13
1.0
 23
0.0
 33
0.0
 40
0.0
 40
0.0
 40
0.0
 40
0.0
 40
1.0
 40
1.0
 40
1.0
 40
1.0
 10
-239.4699
 20
-77.5775
 30
0.0
 10
-240.4699
 20
-77.7035
 30
0.0
 10
-241.2199
 20
-78.5539
 30
0.0
 10
-241.2199
 20
-79.5618
 30
0.0
  0
SPLINE
  5
10B
330
1F
100
AcDbEntity
  8
Layer 1
370
    15
100
AcDbSpline
210
0.0
220
0.0
230
1.0
 70
    24
 71
     3
 72
     8
 73
     4
 74
     0
 42
0.0000000001
 43
0.0000000001
 12
1.0
 22
0.0
 32
0.0
 13
1.0
 23
0.0
 33
0.0
 40
0.0
 40
0.0
 40
0.0
 40
0.0
 40
1.0
 40
1.0
 40
1.0
 40
1.0
 10
-241.2199
 20
-79.5618
 30
0.0
 10
-241.2199
 20
-79.5618
 30
0.0
 10
-241.2199
 20
-84.3736
 30
0.0
 10
-241.2199
 20
-84.3736
 30
0.0
  0
SPLINE
  5
10C
330
1F
100
AcDbEntity
  8
Layer 1
370
    15
100
AcDbSpline
210
0.0
220
0.0
230
1.0
 70
     8
 71
     3
 72
    12
 73
     8
 74
     0
 42
0.0000000001
 43
0.0000000001
 12
1.0
 22
0.0
 32
0.0
 13
1.0
 23
0.0
 33
0.0
 40
0.0
 40
0.0
 40
0.0
 40
0.0
 40
0.3333333333333333
 40
0.3333333333333333
 40
0.3333333333333333
 40
0.3333333333333333
 40
1.0
 40
1.0
 40
1.0
 40
1.0
 10
-255.2199
 20
-98.3736
 30
0.0
 10
-251.5069
 20
-98.3736
 30
0.0
 10
-247.9459
 20
-96.8986
 30
0.0
 10
-245.3204
 20
-94.2731
 30
0.0
 10
-245.3204
 20
-94.2731
 30
0.0
 10
-242.6949
 20
-91.6476
 30
0.0
 10
-241.2199
 20
-88.0866
 30
0.0
 10
-241.2199
 20
-84.3736
 30
0.0
  0
SPLINE
  5
10D
330
1F
100
AcDbEntity
  8
Layer 1
370
    15
100
AcDbSpline
210
0.0
220
0.0
230
1.0
 70
    24
 71
     3
 72
     8
 73
     4
 74
     0
 42
0.0000000001
 43
0.0000000001
 12
1.0
 22
0.0
 32
0.0
 13
1.0
 23
0.0
 33
0.0
 40
0.0
 40
0.0
 40
0.0
 40
0.0
 40
1.0
 40
1.0
 40
1.0
 40
1.0
 10
-255.2199
 20
-98.3736
 30
0.0
 10
-255.2199
 20
-98.3736
 30
0.0
 10
-260.0317
 20
-98.3736
 30
0.0
 10
-260.0317
 20
-98.3736
 30
0.0
  0
SPLINE
  5
10E
330
1F
100
AcDbEntity
  8
Layer 1
370
    15
100
AcDbSpline
210
0.0
220
0.0
230
1.0
 70
     8
 71
     3
 72
     8
 73
     4
 74
     0
 42
0.0000000001
 43
0.0000000001
 12
1.0
 22
0.0
 32
0.0
 13
1.0
 23
0.0
 33
0.0
 40
0.0
 40
0.0
 40
0.0
 40
0.0
 40
1.0
 40
1.0
 40
1.0
 40
1.0
 10
-260.0317
 20
-98.3736
 30
0.0
 10
-261.0396
 20
-98.3736
 30
0.0
 10
-261.89
 20
-99.1236
 30
0.0
 10
-262.016
 20
-100.1236
 30
0.0
  0
SPLINE
  5
10F
330
1F
100
AcDbEntity
  8
Layer 1
370
    15
100
AcDbSpline
210
0.0
220
0.0
230
1.0
 70
     8
 71
     3
 72
     8
 73
     4
 74
     0
 42
0.0000000001
 43
0.0000000001
 12
1.0
 22
0.0
 32
0.0
 13
1.0
 23
0.0
 33
0.0
 40
0.0
 40
0.0
 40
0.0
 40
0.0
 40
1.0
 40
1.0
 40
1.0
 40
1.0
 10
-262.016
 20
-100.1236
 30
0.0
 10
-262.2879
 20
-102.2817
 30
0.0
 10
-262.2879
 20
-104.4655
 30
0.0
 10
-262.016
 20
-106.6236
 30
0.0
  0
SPLINE
  5
110
330
1F
100
AcDbEntity
  8
Layer 1
370
    15
100
AcDbSpline
210
0.0
220
0.0
230
1.0
 70
     8
 71
     3
 72
     8
 73
     4
 74
     0
 42
0.0000000001
 43
0.0000000001
 12
1.0
 22
0.0
 32
0.0
 13
1.0
 23
0.0
 33
0.0
 40
0.0
 40
0.0
 40
0.0
 40
0.0
 40
1.0
 40
1.0
 40
1.0
 40
1.0
 10
-262.016
 20
-106.6236
 30
0.0
 10
-261.89
 20
-107.6236
 30
0.0
 10
-261.0396
 20
-108.3736
 30
0.0
 10
-260.0317
 20
-108.3736
 30
0.0
  0
SPLINE
  5
111
330
1F
100
AcDbEntity
  8
Layer 1
370
    15
100
AcDbSpline
210
0.0
220
0.0
230
1.0
 70
    24
 71
     3
 72
     8
 73
     4
 74
     0
 42
0.0000000001
 43
0.0000000001
 12
1.0
 22
0.0
 32
0.0
 13
1.0
 23
0.0
 33
0.0
 40
0.0
 40
0.0
 40
0.0
 40
0.0
 40
1.0
 40
1.0
 40
1.0
 40
1.0
 10
-260.0317
 20
-108.3736
 30
0.0
 10
-260.0317
 20
-108.3736
 30
0.0
 10
-255.2199
 20
-108.3736
 30
0.0
 10
-255.2199
 20
-108.3736
 30
0.0
  0
SPLINE
  5
112
330
1F
100
AcDbEntity
  8
Layer 1
370
    15
100
AcDbSpline
210
0.0
220
0.0
230
1.0
 70
     8
 71
     3
 72
     8
 73
     4
 74
     0
 42
0.0000000001
 43
0.0000000001
 12
1.0
 22
0.0
 32
0.0
 13
1.0
 23
0.0
 33
0.0
 40
0.0
 40
0.0
 40
0.0
 40
0.0
 40
1.0
 40
1.0
 40
1.0
 40
1.0
 10
-241.2199
 20
-122.3736
 30
0.0
 10
-241.2199
 20
-114.6416
 30
0.0
 10
-247.4879
 20
-108.3736
 30
0.0
 10
-255.2198
 20
-108.3736
 30
0.0
  0
SPLINE
  5
113
330
1F
100
AcDbEntity
  8
Layer 1
370
    15
100
AcDbSpline
210
0.0
220
0.0
230
1.0
 70
    24
 71
     3
 72
     8
 73
     4
 74
     0
 42
0.0000000001
 43
0.0000000001
 12
1.0
 22
0.0
 32
0.0
 13
1.0
 23
0.0
 33
0.0
 40
0.0
 40
0.0
 40
0.0
 40
0.0
 40
1.0
 40
1.0
 40
1.0
 40
1.0
 10
-241.2199
 20
-122.3736
 30
0.0
 10
-241.2199
 20
-122.3736
 30
0.0
 10
-241.2199
 20
-127.1854
 30
0.0
 10
-241.2199
 20
-127.1854
 30
0.0
  0
SPLINE
  5
114
330
1F
100
AcDbEntity
  8
Layer 1
370
    15
100
AcDbSpline
210
0.0
220
0.0
230
1.0
 70
     8
 71
     3
 72
     8
 73
     4
 74
     0
 42
0.0000000001
 43
0.0000000001
 12
1.0
 22
0.0
 32
0.0
 13
1.0
 23
0.0
 33
0.0
 40
0.0
 40
0.0
 40
0.0
 40
0.0
 40
1.0
 40
1.0
 40
1.0
 40
1.0
 10
-241.2199
 20
-127.1854
 30
0.0
 10
-241.2199
 20
-128.1933
 30
0.0
 10
-240.4699
 20
-129.0437
 30
0.0
 10
-239.4699
 20
-129.1697
 30
0.0
  0
SPLINE
  5
115
330
1F
100
AcDbEntity
  8
Layer 1
370
    15
100
AcDbSpline
210
0.0
220
0.0
230
1.0
 70
     8
 71
     3
 72
     8
 73
     4
 74
     0
 42
0.0000000001
 43
0.0000000001
 12
1.0
 22
0.0
 32
0.0
 13
1.0
 23
0.0
 33
0.0
 40
0.0
 40
0.0
 40
0.0
 40
0.0
 40
1.0
 40
1.0
 40
1.0
 40
1.0
 10
-262.34
 20
-1.4031
 30
0.0
 10
-264.4981
 20
-1.675
 30
0.0
 10
-266.6819
 20
-1.675
 30
0.0
 10
-268.84
 20
-1.4031
 30
0.0
  0
SPLINE
  5
116
330
1F
100
AcDbEntity
  8
Layer 1
370
    15
100
AcDbSpline
210
0.0
220
0.0
230
1.0
 70
     8
 71
     3
 72
     8
 73
     4
 74
     0
 42
0.0000000001
 43
0.0000000001
 12
1.0
 22
0.0
 32
0.0
 13
1.0
 23
0.0
 33
0.0
 40
0.0
 40
0.0
 40
0.0
 40
0.0
 40
1.0
 40
1.0
 40
1.0
 40
1.0
 10
-268.84
 20
-1.4031
 30
0.0
 10
-269.84
 20
-1.2771
 30
0.0
 10
-270.59
 20
-0.4267
 30
0.0
 10
-270.59
 20
0.5812
 30
0.0
  0
SPLINE
  5
117
330
1F
100
AcDbEntity
  8
Layer 1
370
    15
100
AcDbSpline
210
0.0
220
0.0
230
1.0
 70
    24
 71
     3
 72
     8
 73
     4
 74
     0
 42
0.0000000001
 43
0.0000000001
 12
1.0
 22
0.0
 32
0.0
 13
1.0
 23
0.0
 33
0.0
 40
0.0
 40
0.0
 40
0.0
 40
0.0
 40
1.0
 40
1.0
 40
1.0
 40
1.0
 10
-270.59
 20
0.5812
 30
0.0
 10
-270.59
 20
0.5812
 30
0.0
 10
-270.59
 20
5.393
 30
0.0
 10
-270.59
 20
5.393
 30
0.0
  0
SPLINE
  5
118
330
1F
100
AcDbEntity
  8
Layer 1
370
    15
100
AcDbSpline
210
0.0
220
0.0
230
1.0
 70
     8
 71
     3
 72
    12
 73
     8
 74
     0
 42
0.0000000001
 43
0.0000000001
 12
1.0
 22
0.0
 32
0.0
 13
1.0
 23
0.0
 33
0.0
 40
0.0
 40
0.0
 40
0.0
 40
0.0
 40
0.3333333333333333
 40
0.3333333333333333
 40
0.3333333333333333
 40
0.3333333333333333
 40
1.0
 40
1.0
 40
1.0
 40
1.0
 10
-284.59
 20
19.393
 30
0.0
 10
-280.877
 20
19.393
 30
0.0
 10
-277.316
 20
17.918
 30
0.0
 10
-274.6905
 20
15.2925
 30
0.0
 10
-274.6905
 20
15.2925
 30
0.0
 10
-272.065
 20
12.667
 30
0.0
 10
-270.59
 20
9.106
 30
0.0
 10
-270.59
 20
5.393
 30
0.0
  0
SPLINE
  5
119
330
1F
100
AcDbEntity
  8
Layer 1
370
    15
100
AcDbSpline
210
0.0
220
0.0
230
1.0
 70
    24
 71
     3
 72
     8
 73
     4
 74
     0
 42
0.0000000001
 43
0.0000000001
 12
1.0
 22
0.0
 32
0.0
 13
1.0
 23
0.0
 33
0.0
 40
0.0
 40
0.0
 40
0.0
 40
0.0
 40
1.0
 40
1.0
 40
1.0
 40
1.0
 10
-284.59
 20
19.393
 30
0.0
 10
-284.59
 20
19.393
 30
0.0
 10
-289.4018
 20
19.393
 30
0.0
 10
-289.4018
 20
19.393
 30
0.0
  0
SPLINE
  5
11A
330
1F
100
AcDbEntity
  8
Layer 1
370
    15
100
AcDbSpline
210
0.0
220
0.0
230
1.0
 70
     8
 71
     3
 72
     8
 73
     4
 74
     0
 42
0.0000000001
 43
0.0000000001
 12
1.0
 22
0.0
 32
0.0
 13
1.0
 23
0.0
 33
0.0
 40
0.0
 40
0.0
 40
0.0
 40
0.0
 40
1.0
 40
1.0
 40
1.0
 40
1.0
 10
-289.4018
 20
19.393
 30
0.0
 10
-290.4097
 20
19.393
 30
0.0
 10
-291.2601
 20
20.143
 30
0.0
 10
-291.3861
 20
21.143
 30
0.0
  0
SPLINE
  5
11B
330
1F
100
AcDbEntity
  8
Layer 1
370
    15
100
AcDbSpline
210
0.0
220
0.0
230
1.0
 70
     8
 71
     3
 72
     8
 73
     4
 74
     0
 42
0.0000000001
 43
0.0000000001
 12
1.0
 22
0.0
 32
0.0
 13
1.0
 23
0.0
 33
0.0
 40
0.0
 40
0.0
 40
0.0
 40
0.0
 40
1.0
 40
1.0
 40
1.0
 40
1.0
 10
-291.3861
 20
21.143
 30
0.0
 10
-291.658
 20
23.3011
 30
0.0
 10
-291.658
 20
25.4849
 30
0.0
 10
-291.3861
 20
27.643
 30
0.0
  0
SPLINE
  5
11C
330
1F
100
AcDbEntity
  8
Layer 1
370
    15
100
AcDbSpline
210
0.0
220
0.0
230
1.0
 70
     8
 71
     3
 72
     8
 73
     4
 74
     0
 42
0.0000000001
 43
0.0000000001
 12
1.0
 22
0.0
 32
0.0
 13
1.0
 23
0.0
 33
0.0
 40
0.0
 40
0.0
 40
0.0
 40
0.0
 40
1.0
 40
1.0
 40
1.0
 40
1.0
 10
-291.3861
 20
27.643
 30
0.0
 10
-291.2601
 20
28.643
 30
0.0
 10
-290.4097
 20
29.393
 30
0.0
 10
-289.4018
 20
29.393
 30
0.0
  0
SPLINE
  5
11D
330
1F
100
AcDbEntity
  8
Layer 1
370
    15
100
AcDbSpline
210
0.0
220
0.0
230
1.0
 70
    24
 71
     3
 72
     8
 73
     4
 74
     0
 42
0.0000000001
 43
0.0000000001
 12
1.0
 22
0.0
 32
0.0
 13
1.0
 23
0.0
 33
0.0
 40
0.0
 40
0.0
 40
0.0
 40
0.0
 40
1.0
 40
1.0
 40
1.0
 40
1.0
 10
-289.4018
 20
29.393
 30
0.0
 10
-289.4018
 20
29.393
 30
0.0
 10
-284.59
 20
29.393
 30
0.0
 10
-284.59
 20
29.393
 30
0.0
  0
SPLINE
  5
11E
330
1F
100
AcDbEntity
  8
Layer 1
370
    15
100
AcDbSpline
210
0.0
220
0.0
230
1.0
 70
     8
 71
     3
 72
    12
 73
     8
 74
     0
 42
0.0000000001
 43
0.0000000001
 12
1.0
 22
0.0
 32
0.0
 13
1.0
 23
0.0
 33
0.0
 40
0.0
 40
0.0
 40
0.0
 40
0.0
 40
0.3333333333333333
 40
0.3333333333333333
 40
0.3333333333333333
 40
0.3333333333333333
 40
1.0
 40
1.0
 40
1.0
 40
1.0
 10
-270.59
 20
43.393
 30
0.0
 10
-270.59
 20
39.68
 30
0.0
 10
-272.065
 20
36.119
 30
0.0
 10
-274.6905
 20
33.4935
 30
0.0
 10
-274.6905
 20
33.4935
 30
0.0
 10
-277.316
 20
30.868
 30
0.0
 10
-280.877
 20
29.393
 30
0.0
 10
-284.59
 20
29.393
 30
0.0
  0
SPLINE
  5
11F
330
1F
100
AcDbEntity
  8
Layer 1
370
    15
100
AcDbSpline
210
0.0
220
0.0
230
1.0
 70
    24
 71
     3
 72
     8
 73
     4
 74
     0
 42
0.0000000001
 43
0.0000000001
 12
1.0
 22
0.0
 32
0.0
 13
1.0
 23
0.0
 33
0.0
 40
0.0
 40
0.0
 40
0.0
 40
0.0
 40
1.0
 40
1.0
 40
1.0
 40
1.0
 10
-270.59
 20
43.393
 30
0.0
 10
-270.59
 20
43.393
 30
0.0
 10
-270.59
 20
48.2048
 30
0.0
 10
-270.59
 20
48.2048
 30
0.0
  0
SPLINE
  5
120
330
1F
100
AcDbEntity
  8
Layer 1
370
    15
100
AcDbSpline
210
0.0
220
0.0
230
1.0
 70
     8
 71
     3
 72
     8
 73
     4
 74
     0
 42
0.0000000001
 43
0.0000000001
 12
1.0
 22
0.0
 32
0.0
 13
1.0
 23
0.0
 33
0.0
 40
0.0
 40
0.0
 40
0.0
 40
0.0
 40
1.0
 40
1.0
 40
1.0
 40
1.0
 10
-270.59
 20
48.2048
 30
0.0
 10
-270.59
 20
49.2127
 30
0.0
 10
-269.84
 20
50.0631
 30
0.0
 10
-268.84
 20
50.1891
 30
0.0
  0
SPLINE
  5
121
330
1F
100
AcDbEntity
  8
Layer 1
370
    15
100
AcDbSpline
210
0.0
220
0.0
230
1.0
 70
     8
 71
     3
 72
     8
 73
     4
 74
     0
 42
0.0000000001
 43
0.0000000001
 12
1.0
 22
0.0
 32
0.0
 13
1.0
 23
0.0
 33
0.0
 40
0.0
 40
0.0
 40
0.0
 40
0.0
 40
1.0
 40
1.0
 40
1.0
 40
1.0
 10
-268.84
 20
50.1891
 30
0.0
 10
-266.6819
 20
50.461
 30
0.0
 10
-264.4982
 20
50.461
 30
0.0
 10
-262.3401
 20
50.1891
 30
0.0
  0
SPLINE
  5
122
330
1F
100
AcDbEntity
  8
Layer 1
370
    15
100
AcDbSpline
210
0.0
220
0.0
230
1.0
 70
     8
 71
     3
 72
     8
 73
     4
 74
     0
 42
0.0000000001
 43
0.0000000001
 12
1.0
 22
0.0
 32
0.0
 13
1.0
 23
0.0
 33
0.0
 40
0.0
 40
0.0
 40
0.0
 40
0.0
 40
1.0
 40
1.0
 40
1.0
 40
1.0
 10
-262.34
 20
50.1891
 30
0.0
 10
-261.34
 20
50.0631
 30
0.0
 10
-260.59
 20
49.2127
 30
0.0
 10
-260.59
 20
48.2048
 30
0.0
  0
SPLINE
  5
123
330
1F
100
AcDbEntity
  8
Layer 1
370
    15
100
AcDbSpline
210
0.0
220
0.0
230
1.0
 70
    24
 71
     3
 72
     8
 73
     4
 74
     0
 42
0.0000000001
 43
0.0000000001
 12
1.0
 22
0.0
 32
0.0
 13
1.0
 23
0.0
 33
0.0
 40
0.0
 40
0.0
 40
0.0
 40
0.0
 40
1.0
 40
1.0
 40
1.0
 40
1.0
 10
-260.59
 20
48.2048
 30
0.0
 10
-260.59
 20
48.2048
 30
0.0
 10
-260.59
 20
43.393
 30
0.0
 10
-260.59
 20
43.393
 30
0.0
  0
SPLINE
  5
124
330
1F
100
AcDbEntity
  8
Layer 1
370
    15
100
AcDbSpline
210
0.0
220
0.0
230
1.0
 70
     8
 71
     3
 72
    12
 73
     8
 74
     0
 42
0.0000000001
 43
0.0000000001
 12
1.0
 22
0.0
 32
0.0
 13
1.0
 23
0.0
 33
0.0
 40
0.0
 40
0.0
 40
0.0
 40
0.0
 40
0.3333333333333333
 40
0.3333333333333333
 40
0.3333333333333333
 40
0.3333333333333333
 40
1.0
 40
1.0
 40
1.0
 40
1.0
 10
-246.59
 20
29.393
 30
0.0
 10
-250.303
 20
29.393
 30
0.0
 10
-253.864
 20
30.868
 30
0.0
 10
-256.4895
 20
33.4935
 30
0.0
 10
-256.4895
 20
33.4935
 30
0.0
 10
-259.115
 20
36.119
 30
0.0
 10
-260.59
 20
39.68
 30
0.0
 10
-260.59
 20
43.393
 30
0.0
  0
SPLINE
  5
125
330
1F
100
AcDbEntity
  8
Layer 1
370
    15
100
AcDbSpline
210
0.0
220
0.0
230
1.0
 70
    24
 71
     3
 72
     8
 73
     4
 74
     0
 42
0.0000000001
 43
0.0000000001
 12
1.0
 22
0.0
 32
0.0
 13
1.0
 23
0.0
 33
0.0
 40
0.0
 40
0.0
 40
0.0
 40
0.0
 40
1.0
 40
1.0
 40
1.0
 40
1.0
 10
-246.59
 20
29.393
 30
0.0
 10
-246.59
 20
29.393
 30
0.0
 10
-241.7782
 20
29.393
 30
0.0
 10
-241.7782
 20
29.393
 30
0.0
  0
SPLINE
  5
126
330
1F
100
AcDbEntity
  8
Layer 1
370
    15
100
AcDbSpline
210
0.0
220
0.0
230
1.0
 70
     8
 71
     3
 72
     8
 73
     4
 74
     0
 42
0.0000000001
 43
0.0000000001
 12
1.0
 22
0.0
 32
0.0
 13
1.0
 23
0.0
 33
0.0
 40
0.0
 40
0.0
 40
0.0
 40
0.0
 40
1.0
 40
1.0
 40
1.0
 40
1.0
 10
-241.7782
 20
29.393
 30
0.0
 10
-240.7703
 20
29.393
 30
0.0
 10
-239.9199
 20
28.643
 30
0.0
 10
-239.7939
 20
27.643
 30
0.0
  0
SPLINE
  5
127
330
1F
100
AcDbEntity
  8
Layer 1
370
    15
100
AcDbSpline
210
0.0
220
0.0
230
1.0
 70
     8
 71
     3
 72
     8
 73
     4
 74
     0
 42
0.0000000001
 43
0.0000000001
 12
1.0
 22
0.0
 32
0.0
 13
1.0
 23
0.0
 33
0.0
 40
0.0
 40
0.0
 40
0.0
 40
0.0
 40
1.0
 40
1.0
 40
1.0
 40
1.0
 10
-239.7939
 20
27.643
 30
0.0
 10
-239.522
 20
25.4849
 30
0.0
 10
-239.522
 20
23.3011
 30
0.0
 10
-239.7939
 20
21.143
 30
0.0
  0
SPLINE
  5
128
330
1F
100
AcDbEntity
  8
Layer 1
370
    15
100
AcDbSpline
210
0.0
220
0.0
230
1.0
 70
     8
 71
     3
 72
     8
 73
     4
 74
     0
 42
0.0000000001
 43
0.0000000001
 12
1.0
 22
0.0
 32
0.0
 13
1.0
 23
0.0
 33
0.0
 40
0.0
 40
0.0
 40
0.0
 40
0.0
 40
1.0
 40
1.0
 40
1.0
 40
1.0
 10
-239.7939
 20
21.143
 30
0.0
 10
-239.9199
 20
20.143
 30
0.0
 10
-240.7703
 20
19.393
 30
0.0
 10
-241.7782
 20
19.393
 30
0.0
  0
SPLINE
  5
129
330
1F
100
AcDbEntity
  8
Layer 1
370
    15
100
AcDbSpline
210
0.0
220
0.0
230
1.0
 70
    24
 71
     3
 72
     8
 73
     4
 74
     0
 42
0.0000000001
 43
0.0000000001
 12
1.0
 22
0.0
 32
0.0
 13
1.0
 23
0.0
 33
0.0
 40
0.0
 40
0.0
 40
0.0
 40
0.0
 40
1.0
 40
1.0
 40
1.0
 40
1.0
 10
-241.7782
 20
19.393
 30
0.0
 10
-241.7782
 20
19.393
 30
0.0
 10
-246.59
 20
19.393
 30
0.0
 10
-246.59
 20
19.393
 30
0.0
  0
SPLINE
  5
12A
330
1F
100
AcDbEntity
  8
Layer 1
370
    15
100
AcDbSpline
210
0.0
220
0.0
230
1.0
 70
     8
 71
     3
 72
     8
 73
     4
 74
     0
 42
0.0000000001
 43
0.0000000001
 12
1.0
 22
0.0
 32
0.0
 13
1.0
 23
0.0
 33
0.0
 40
0.0
 40
0.0
 40
0.0
 40
0.0
 40
1.0
 40
1.0
 40
1.0
 40
1.0
 10
-260.59
 20
5.393
 30
0.0
 10
-260.59
 20
13.125
 30
0.0
 10
-254.322
 20
19.393
 30
0.0
 10
-246.5901
 20
19.393
 30
0.0
  0
SPLINE
  5
12B
330
1F
100
AcDbEntity
  8
Layer 1
370
    15
100
AcDbSpline
210
0.0
220
0.0
230
1.0
 70
    24
 71
     3
 72
     8
 73
     4
 74
     0
 42
0.0000000001
 43
0.0000000001
 12
1.0
 22
0.0
 32
0.0
 13
1.0
 23
0.0
 33
0.0
 40
0.0
 40
0.0
 40
0.0
 40
0.0
 40
1.0
 40
1.0
 40
1.0
 40
1.0
 10
-260.59
 20
5.393
 30
0.0
 10
-260.59
 20
5.393
 30
0.0
 10
-260.59
 20
0.5812
 30
0.0
 10
-260.59
 20
0.5812
 30
0.0
  0
SPLINE
  5
12C
330
1F
100
AcDbEntity
  8
Layer 1
370
    15
100
AcDbSpline
210
0.0
220
0.0
230
1.0
 70
     8
 71
     3
 72
     8
 73
     4
 74
     0
 42
0.0000000001
 43
0.0000000001
 12
1.0
 22
0.0
 32
0.0
 13
1.0
 23
0.0
 33
0.0
 40
0.0
 40
0.0
 40
0.0
 40
0.0
 40
1.0
 40
1.0
 40
1.0
 40
1.0
 10
-260.59
 20
0.5812
 30
0.0
 10
-260.59
 20
-0.4267
 30
0.0
 10
-261.34
 20
-1.2771
 30
0.0
 10
-262.34
 20
-1.4031
 30
0.0
  0
SPLINE
  5
12D
330
1F
100
AcDbEntity
  8
Layer 1
370
    15
100
AcDbSpline
210
0.0
220
0.0
230
1.0
 70
     8
 71
     3
 72
     8
 73
     4
 74
     0
 42
0.0000000001
 43
0.0000000001
 12
1.0
 22
0.0
 32
0.0
 13
1.0
 23
0.0
 33
0.0
 40
0.0
 40
0.0
 40
0.0
 40
0.0
 40
1.0
 40
1.0
 40
1.0
 40
1.0
 10
-233.6331
 20
77.3737
 30
0.0
 10
-235.7912
 20
77.1018
 30
0.0
 10
-237.975
 20
77.1018
 30
0.0
 10
-240.1331
 20
77.3737
 30
0.0
  0
SPLINE
  5
12E
330
1F
100
AcDbEntity
  8
Layer 1
370
    15
100
AcDbSpline
210
0.0
220
0.0
230
1.0
 70
     8
 71
     3
 72
     8
 73
     4
 74
     0
 42
0.0000000001
 43
0.0000000001
 12
1.0
 22
0.0
 32
0.0
 13
1.0
 23
0.0
 33
0.0
 40
0.0
 40
0.0
 40
0.0
 40
0.0
 40
1.0
 40
1.0
 40
1.0
 40
1.0
 10
-240.1331
 20
77.3737
 30
0.0
 10
-241.1331
 20
77.4997
 30
0.0
 10
-241.8831
 20
78.3501
 30
0.0
 10
-241.8831
 20
79.358
 30
0.0
  0
SPLINE
  5
12F
330
1F
100
AcDbEntity
  8
Layer 1
370
    15
100
AcDbSpline
210
0.0
220
0.0
230
1.0
 70
    24
 71
     3
 72
     8
 73
     4
 74
     0
 42
0.0000000001
 43
0.0000000001
 12
1.0
 22
0.0
 32
0.0
 13
1.0
 23
0.0
 33
0.0
 40
0.0
 40
0.0
 40
0.0
 40
0.0
 40
1.0
 40
1.0
 40
1.0
 40
1.0
 10
-241.8831
 20
79.358
 30
0.0
 10
-241.8831
 20
79.358
 30
0.0
 10
-241.8831
 20
84.1698
 30
0.0
 10
-241.8831
 20
84.1698
 30
0.0
  0
SPLINE
  5
130
330
1F
100
AcDbEntity
  8
Layer 1
370
    15
100
AcDbSpline
210
0.0
220
0.0
230
1.0
 70
     8
 71
     3
 72
    12
 73
     8
 74
     0
 42
0.0000000001
 43
0.0000000001
 12
1.0
 22
0.0
 32
0.0
 13
1.0
 23
0.0
 33
0.0
 40
0.0
 40
0.0
 40
0.0
 40
0.0
 40
0.3333333333333333
 40
0.3333333333333333
 40
0.3333333333333333
 40
0.3333333333333333
 40
1.0
 40
1.0
 40
1.0
 40
1.0
 10
-255.8831
 20
98.1698
 30
0.0
 10
-252.1701
 20
98.1698
 30
0.0
 10
-248.6091
 20
96.6948
 30
0.0
 10
-245.9836
 20
94.0693
 30
0.0
 10
-245.9836
 20
94.0693
 30
0.0
 10
-243.3581
 20
91.4438
 30
0.0
 10
-241.8831
 20
87.8828
 30
0.0
 10
-241.8831
 20
84.1698
 30
0.0
  0
SPLINE
  5
131
330
1F
100
AcDbEntity
  8
Layer 1
370
    15
100
AcDbSpline
210
0.0
220
0.0
230
1.0
 70
    24
 71
     3
 72
     8
 73
     4
 74
     0
 42
0.0000000001
 43
0.0000000001
 12
1.0
 22
0.0
 32
0.0
 13
1.0
 23
0.0
 33
0.0
 40
0.0
 40
0.0
 40
0.0
 40
0.0
 40
1.0
 40
1.0
 40
1.0
 40
1.0
 10
-255.8831
 20
98.1698
 30
0.0
 10
-255.8831
 20
98.1698
 30
0.0
 10
-260.6949
 20
98.1698
 30
0.0
 10
-260.6949
 20
98.1698
 30
0.0
  0
SPLINE
  5
132
330
1F
100
AcDbEntity
  8
Layer 1
370
    15
100
AcDbSpline
210
0.0
220
0.0
230
1.0
 70
     8
 71
     3
 72
     8
 73
     4
 74
     0
 42
0.0000000001
 43
0.0000000001
 12
1.0
 22
0.0
 32
0.0
 13
1.0
 23
0.0
 33
0.0
 40
0.0
 40
0.0
 40
0.0
 40
0.0
 40
1.0
 40
1.0
 40
1.0
 40
1.0
 10
-260.6949
 20
98.1698
 30
0.0
 10
-261.7028
 20
98.1698
 30
0.0
 10
-262.5532
 20
98.9198
 30
0.0
 10
-262.6792
 20
99.9198
 30
0.0
  0
SPLINE
  5
133
330
1F
100
AcDbEntity
  8
Layer 1
370
    15
100
AcDbSpline
210
0.0
220
0.0
230
1.0
 70
     8
 71
     3
 72
     8
 73
     4
 74
     0
 42
0.0000000001
 43
0.0000000001
 12
1.0
 22
0.0
 32
0.0
 13
1.0
 23
0.0
 33
0.0
 40
0.0
 40
0.0
 40
0.0
 40
0.0
 40
1.0
 40
1.0
 40
1.0
 40
1.0
 10
-262.6792
 20
99.9198
 30
0.0
 10
-262.9511
 20
102.0779
 30
0.0
 10
-262.9511
 20
104.2617
 30
0.0
 10
-262.6792
 20
106.4198
 30
0.0
  0
SPLINE
  5
134
330
1F
100
AcDbEntity
  8
Layer 1
370
    15
100
AcDbSpline
210
0.0
220
0.0
230
1.0
 70
     8
 71
     3
 72
     8
 73
     4
 74
     0
 42
0.0000000001
 43
0.0000000001
 12
1.0
 22
0.0
 32
0.0
 13
1.0
 23
0.0
 33
0.0
 40
0.0
 40
0.0
 40
0.0
 40
0.0
 40
1.0
 40
1.0
 40
1.0
 40
1.0
 10
-262.6792
 20
106.4198
 30
0.0
 10
-262.5532
 20
107.4198
 30
0.0
 10
-261.7028
 20
108.1698
 30
0.0
 10
-260.6949
 20
108.1698
 30
0.0
  0
SPLINE
  5
135
330
1F
100
AcDbEntity
  8
Layer 1
370
    15
100
AcDbSpline
210
0.0
220
0.0
230
1.0
 70
    24
 71
     3
 72
     8
 73
     4
 74
     0
 42
0.0000000001
 43
0.0000000001
 12
1.0
 22
0.0
 32
0.0
 13
1.0
 23
0.0
 33
0.0
 40
0.0
 40
0.0
 40
0.0
 40
0.0
 40
1.0
 40
1.0
 40
1.0
 40
1.0
 10
-260.6949
 20
108.1698
 30
0.0
 10
-260.6949
 20
108.1698
 30
0.0
 10
-255.8831
 20
108.1698
 30
0.0
 10
-255.8831
 20
108.1698
 30
0.0
  0
SPLINE
  5
136
330
1F
100
AcDbEntity
  8
Layer 1
370
    15
100
AcDbSpline
210
0.0
220
0.0
230
1.0
 70
     8
 71
     3
 72
    12
 73
     8
 74
     0
 42
0.0000000001
 43
0.0000000001
 12
1.0
 22
0.0
 32
0.0
 13
1.0
 23
0.0
 33
0.0
 40
0.0
 40
0.0
 40
0.0
 40
0.0
 40
0.3333333333333333
 40
0.3333333333333333
 40
0.3333333333333333
 40
0.3333333333333333
 40
1.0
 40
1.0
 40
1.0
 40
1.0
 10
-241.8831
 20
122.1698
 30
0.0
 10
-241.8831
 20
118.4568
 30
0.0
 10
-243.3581
 20
114.8958
 30
0.0
 10
-245.9836
 20
112.2703
 30
0.0
 10
-245.9836
 20
112.2703
 30
0.0
 10
-248.6091
 20
109.6448
 30
0.0
 10
-252.1701
 20
108.1698
 30
0.0
 10
-255.8831
 20
108.1698
 30
0.0
  0
SPLINE
  5
137
330
1F
100
AcDbEntity
  8
Layer 1
370
    15
100
AcDbSpline
210
0.0
220
0.0
230
1.0
 70
    24
 71
     3
 72
     8
 73
     4
 74
     0
 42
0.0000000001
 43
0.0000000001
 12
1.0
 22
0.0
 32
0.0
 13
1.0
 23
0.0
 33
0.0
 40
0.0
 40
0.0
 40
0.0
 40
0.0
 40
1.0
 40
1.0
 40
1.0
 40
1.0
 10
-241.8831
 20
122.1698
 30
0.0
 10
-241.8831
 20
122.1698
 30
0.0
 10
-241.8831
 20
126.9816
 30
0.0
 10
-241.8831
 20
126.9816
 30
0.0
  0
SPLINE
  5
138
330
1F
100
AcDbEntity
  8
Layer 1
370
    15
100
AcDbSpline
210
0.0
220
0.0
230
1.0
 70
     8
 71
     3
 72
     8
 73
     4
 74
     0
 42
0.0000000001
 43
0.0000000001
 12
1.0
 22
0.0
 32
0.0
 13
1.0
 23
0.0
 33
0.0
 40
0.0
 40
0.0
 40
0.0
 40
0.0
 40
1.0
 40
1.0
 40
1.0
 40
1.0
 10
-241.8831
 20
126.9816
 30
0.0
 10
-241.8831
 20
127.9895
 30
0.0
 10
-241.1331
 20
128.8399
 30
0.0
 10
-240.1331
 20
128.9659
 30
0.0
  0
SPLINE
  5
139
330
1F
100
AcDbEntity
  8
Layer 1
370
    15
100
AcDbSpline
210
0.0
220
0.0
230
1.0
 70
     8
 71
     3
 72
     8
 73
     4
 74
     0
 42
0.0000000001
 43
0.0000000001
 12
1.0
 22
0.0
 32
0.0
 13
1.0
 23
0.0
 33
0.0
 40
0.0
 40
0.0
 40
0.0
 40
0.0
 40
1.0
 40
1.0
 40
1.0
 40
1.0
 10
-240.1331
 20
128.9659
 30
0.0
 10
-237.975
 20
129.2378
 30
0.0
 10
-235.7913
 20
129.2378
 30
0.0
 10
-233.6332
 20
128.9659
 30
0.0
  0
SPLINE
  5
13A
330
1F
100
AcDbEntity
  8
Layer 1
370
    15
100
AcDbSpline
210
0.0
220
0.0
230
1.0
 70
     8
 71
     3
 72
     8
 73
     4
 74
     0
 42
0.0000000001
 43
0.0000000001
 12
1.0
 22
0.0
 32
0.0
 13
1.0
 23
0.0
 33
0.0
 40
0.0
 40
0.0
 40
0.0
 40
0.0
 40
1.0
 40
1.0
 40
1.0
 40
1.0
 10
-233.6331
 20
128.9659
 30
0.0
 10
-232.6331
 20
128.8399
 30
0.0
 10
-231.8831
 20
127.9895
 30
0.0
 10
-231.8831
 20
126.9816
 30
0.0
  0
SPLINE
  5
13B
330
1F
100
AcDbEntity
  8
Layer 1
370
    15
100
AcDbSpline
210
0.0
220
0.0
230
1.0
 70
    24
 71
     3
 72
     8
 73
     4
 74
     0
 42
0.0000000001
 43
0.0000000001
 12
1.0
 22
0.0
 32
0.0
 13
1.0
 23
0.0
 33
0.0
 40
0.0
 40
0.0
 40
0.0
 40
0.0
 40
1.0
 40
1.0
 40
1.0
 40
1.0
 10
-231.8831
 20
126.9816
 30
0.0
 10
-231.8831
 20
126.9816
 30
0.0
 10
-231.8831
 20
122.1698
 30
0.0
 10
-231.8831
 20
122.1698
 30
0.0
  0
SPLINE
  5
13C
330
1F
100
AcDbEntity
  8
Layer 1
370
    15
100
AcDbSpline
210
0.0
220
0.0
230
1.0
 70
     8
 71
     3
 72
    12
 73
     8
 74
     0
 42
0.0000000001
 43
0.0000000001
 12
1.0
 22
0.0
 32
0.0
 13
1.0
 23
0.0
 33
0.0
 40
0.0
 40
0.0
 40
0.0
 40
0.0
 40
0.3333333333333333
 40
0.3333333333333333
 40
0.3333333333333333
 40
0.3333333333333333
 40
1.0
 40
1.0
 40
1.0
 40
1.0
 10
-217.8831
 20
108.1698
 30
0.0
 10
-221.5961
 20
108.1698
 30
0.0
 10
-225.1571
 20
109.6448
 30
0.0
 10
-227.7826
 20
112.2703
 30
0.0
 10
-227.7826
 20
112.2703
 30
0.0
 10
-230.4081
 20
114.8958
 30
0.0
 10
-231.8831
 20
118.4568
 30
0.0
 10
-231.8831
 20
122.1698
 30
0.0
  0
SPLINE
  5
13D
330
1F
100
AcDbEntity
  8
Layer 1
370
    15
100
AcDbSpline
210
0.0
220
0.0
230
1.0
 70
    24
 71
     3
 72
     8
 73
     4
 74
     0
 42
0.0000000001
 43
0.0000000001
 12
1.0
 22
0.0
 32
0.0
 13
1.0
 23
0.0
 33
0.0
 40
0.0
 40
0.0
 40
0.0
 40
0.0
 40
1.0
 40
1.0
 40
1.0
 40
1.0
 10
-217.8831
 20
108.1698
 30
0.0
 10
-217.8831
 20
108.1698
 30
0.0
 10
-213.0713
 20
108.1698
 30
0.0
 10
-213.0713
 20
108.1698
 30
0.0
  0
SPLINE
  5
13E
330
1F
100
AcDbEntity
  8
Layer 1
370
    15
100
AcDbSpline
210
0.0
220
0.0
230
1.0
 70
     8
 71
     3
 72
     8
 73
     4
 74
     0
 42
0.0000000001
 43
0.0000000001
 12
1.0
 22
0.0
 32
0.0
 13
1.0
 23
0.0
 33
0.0
 40
0.0
 40
0.0
 40
0.0
 40
0.0
 40
1.0
 40
1.0
 40
1.0
 40
1.0
 10
-213.0713
 20
108.1698
 30
0.0
 10
-212.0634
 20
108.1698
 30
0.0
 10
-211.213
 20
107.4198
 30
0.0
 10
-211.087
 20
106.4198
 30
0.0
  0
SPLINE
  5
13F
330
1F
100
AcDbEntity
  8
Layer 1
370
    15
100
AcDbSpline
210
0.0
220
0.0
230
1.0
 70
     8
 71
     3
 72
     8
 73
     4
 74
     0
 42
0.0000000001
 43
0.0000000001
 12
1.0
 22
0.0
 32
0.0
 13
1.0
 23
0.0
 33
0.0
 40
0.0
 40
0.0
 40
0.0
 40
0.0
 40
1.0
 40
1.0
 40
1.0
 40
1.0
 10
-211.087
 20
106.4198
 30
0.0
 10
-210.8151
 20
104.2617
 30
0.0
 10
-210.8151
 20
102.0779
 30
0.0
 10
-211.087
 20
99.9198
 30
0.0
  0
SPLINE
  5
140
330
1F
100
AcDbEntity
  8
Layer 1
370
    15
100
AcDbSpline
210
0.0
220
0.0
230
1.0
 70
     8
 71
     3
 72
     8
 73
     4
 74
     0
 42
0.0000000001
 43
0.0000000001
 12
1.0
 22
0.0
 32
0.0
 13
1.0
 23
0.0
 33
0.0
 40
0.0
 40
0.0
 40
0.0
 40
0.0
 40
1.0
 40
1.0
 40
1.0
 40
1.0
 10
-211.087
 20
99.9198
 30
0.0
 10
-211.213
 20
98.9198
 30
0.0
 10
-212.0634
 20
98.1698
 30
0.0
 10
-213.0713
 20
98.1698
 30
0.0
  0
SPLINE
  5
141
330
1F
100
AcDbEntity
  8
Layer 1
370
    15
100
AcDbSpline
210
0.0
220
0.0
230
1.0
 70
    24
 71
     3
 72
     8
 73
     4
 74
     0
 42
0.0000000001
 43
0.0000000001
 12
1.0
 22
0.0
 32
0.0
 13
1.0
 23
0.0
 33
0.0
 40
0.0
 40
0.0
 40
0.0
 40
0.0
 40
1.0
 40
1.0
 40
1.0
 40
1.0
 10
-213.0713
 20
98.1698
 30
0.0
 10
-213.0713
 20
98.1698
 30
0.0
 10
-217.8831
 20
98.1698
 30
0.0
 10
-217.8831
 20
98.1698
 30
0.0
  0
SPLINE
  5
142
330
1F
100
AcDbEntity
  8
Layer 1
370
    15
100
AcDbSpline
210
0.0
220
0.0
230
1.0
 70
     8
 71
     3
 72
     8
 73
     4
 74
     0
 42
0.0000000001
 43
0.0000000001
 12
1.0
 22
0.0
 32
0.0
 13
1.0
 23
0.0
 33
0.0
 40
0.0
 40
0.0
 40
0.0
 40
0.0
 40
1.0
 40
1.0
 40
1.0
 40
1.0
 10
-231.8831
 20
84.1698
 30
0.0
 10
-231.8831
 20
91.9018
 30
0.0
 10
-225.6151
 20
98.1698
 30
0.0
 10
-217.8832
 20
98.1698
 30
0.0
  0
SPLINE
  5
143
330
1F
100
AcDbEntity
  8
Layer 1
370
    15
100
AcDbSpline
210
0.0
220
0.0
230
1.0
 70
    24
 71
     3
 72
     8
 73
     4
 74
     0
 42
0.0000000001
 43
0.0000000001
 12
1.0
 22
0.0
 32
0.0
 13
1.0
 23
0.0
 33
0.0
 40
0.0
 40
0.0
 40
0.0
 40
0.0
 40
1.0
 40
1.0
 40
1.0
 40
1.0
 10
-231.8831
 20
84.1698
 30
0.0
 10
-231.8831
 20
84.1698
 30
0.0
 10
-231.8831
 20
79.358
 30
0.0
 10
-231.8831
 20
79.358
 30
0.0
  0
SPLINE
  5
144
330
1F
100
AcDbEntity
  8
Layer 1
370
    15
100
AcDbSpline
210
0.0
220
0.0
230
1.0
 70
     8
 71
     3
 72
     8
 73
     4
 74
     0
 42
0.0000000001
 43
0.0000000001
 12
1.0
 22
0.0
 32
0.0
 13
1.0
 23
0.0
 33
0.0
 40
0.0
 40
0.0
 40
0.0
 40
0.0
 40
1.0
 40
1.0
 40
1.0
 40
1.0
 10
-231.8831
 20
79.358
 30
0.0
 10
-231.8831
 20
78.3501
 30
0.0
 10
-232.6331
 20
77.4997
 30
0.0
 10
-233.6331
 20
77.3737
 30
0.0
  0
SPLINE
  5
145
330
1F
100
AcDbEntity
  8
Layer 1
370
    15
100
AcDbSpline
210
0.0
220
0.0
230
1.0
 70
    11
 71
     3
 72
    20
 73
    16
 74
     0
 42
0.0000000001
 43
0.0000000001
 12
1.0
 22
0.0
 32
0.0
 13
1.0
 23
0.0
 33
0.0
 40
0.0
 40
0.0
 40
0.0
 40
0.0
 40
0.2
 40
0.2
 40
0.2
 40
0.2
 40
0.4
 40
0.4
 40
0.4
 40
0.4
 40
0.6
 40
0.6
 40
0.6
 40
0.6
 40
1.0
 40
1.0
 40
1.0
 40
1.0
 10
275.1534
 20
-29.9357
 30
0.0
 10
275.1534
 20
-29.1349
 30
0.0
 10
274.5042
 20
-28.4857
 30
0.0
 10
273.7034
 20
-28.4857
 30
0.0
 10
273.7034
 20
-28.4857
 30
0.0
 10
272.9026
 20
-28.4857
 30
0.0
 10
272.2534
 20
-29.1349
 30
0.0
 10
272.2534
 20
-29.9357
 30
0.0
 10
272.2534
 20
-29.9357
 30
0.0
 10
272.2534
 20
-30.7365
 30
0.0
 10
272.9026
 20
-31.3857
 30
0.0
 10
273.7034
 20
-31.3857
 30
0.0
 10
273.7034
 20
-31.3857
 30
0.0
 10
274.5042
 20
-31.3857
 30
0.0
 10
275.1534
 20
-30.7365
 30
0.0
 10
275.1534
 20
-29.9357
 30
0.0
  0
SPLINE
  5
146
330
1F
100
AcDbEntity
  8
Layer 1
370
    15
100
AcDbSpline
210
0.0
220
0.0
230
1.0
 70
    11
 71
     3
 72
    20
 73
    16
 74
     0
 42
0.0000000001
 43
0.0000000001
 12
1.0
 22
0.0
 32
0.0
 13
1.0
 23
0.0
 33
0.0
 40
0.0
 40
0.0
 40
0.0
 40
0.0
 40
0.2
 40
0.2
 40
0.2
 40
0.2
 40
0.4
 40
0.4
 40
0.4
 40
0.4
 40
0.6
 40
0.6
 40
0.6
 40
0.6
 40
1.0
 40
1.0
 40
1.0
 40
1.0
 10
289.6534
 20
25.8142
 30
0.0
 10
289.6534
 20
26.615
 30
0.0
 10
289.0042
 20
27.2642
 30
0.0
 10
288.2034
 20
27.2642
 30
0.0
 10
288.2034
 20
27.2642
 30
0.0
 10
287.4026
 20
27.2642
 30
0.0
 10
286.7534
 20
26.615
 30
0.0
 10
286.7534
 20
25.8142
 30
0.0
 10
286.7534
 20
25.8142
 30
0.0
 10
286.7534
 20
25.0134
 30
0.0
 10
287.4026
 20
24.3642
 30
0.0
 10
288.2034
 20
24.3642
 30
0.0
 10
288.2034
 20
24.3642
 30
0.0
 10
289.0042
 20
24.3642
 30
0.0
 10
289.6534
 20
25.0133
 30
0.0
 10
289.6534
 20
25.8142
 30
0.0
  0
SPLINE
  5
147
330
1F
100
AcDbEntity
  8
Layer 1
370
    15
100
AcDbSpline
210
0.0
220
0.0
230
1.0
 70
    11
 71
     3
 72
    20
 73
    16
 74
     0
 42
0.0000000001
 43
0.0000000001
 12
1.0
 22
0.0
 32
0.0
 13
1.0
 23
0.0
 33
0.0
 40
0.0
 40
0.0
 40
0.0
 40
0.0
 40
0.2
 40
0.2
 40
0.2
 40
0.2
 40
0.4
 40
0.4
 40
0.4
 40
0.4
 40
0.6
 40
0.6
 40
0.6
 40
0.6
 40
1.0
 40
1.0
 40
1.0
 40
1.0
 10
260.6534
 20
30.164
 30
0.0
 10
260.6534
 20
30.9648
 30
0.0
 10
260.0042
 20
31.614
 30
0.0
 10
259.2034
 20
31.614
 30
0.0
 10
259.2034
 20
31.614
 30
0.0
 10
258.4026
 20
31.614
 30
0.0
 10
257.7534
 20
30.9648
 30
0.0
 10
257.7534
 20
30.164
 30
0.0
 10
257.7534
 20
30.164
 30
0.0
 10
257.7534
 20
29.3632
 30
0.0
 10
258.4026
 20
28.714
 30
0.0
 10
259.2034
 20
28.714
 30
0.0
 10
259.2034
 20
28.714
 30
0.0
 10
260.0042
 20
28.714
 30
0.0
 10
260.6534
 20
29.3632
 30
0.0
 10
260.6534
 20
30.164
 30
0.0
  0
SPLINE
  5
148
330
1F
100
AcDbEntity
  8
Layer 1
370
    15
100
AcDbSpline
210
0.0
220
0.0
230
1.0
 70
    11
 71
     3
 72
    20
 73
    16
 74
     0
 42
0.0000000001
 43
0.0000000001
 12
1.0
 22
0.0
 32
0.0
 13
1.0
 23
0.0
 33
0.0
 40
0.0
 40
0.0
 40
0.0
 40
0.0
 40
0.2
 40
0.2
 40
0.2
 40
0.2
 40
0.4
 40
0.4
 40
0.4
 40
0.4
 40
0.6
 40
0.6
 40
0.6
 40
0.6
 40
1.0
 40
1.0
 40
1.0
 40
1.0
 10
246.1534
 20
-34.2855
 30
0.0
 10
246.1534
 20
-33.4847
 30
0.0
 10
245.5042
 20
-32.8355
 30
0.0
 10
244.7034
 20
-32.8355
 30
0.0
 10
244.7034
 20
-32.8355
 30
0.0
 10
243.9026
 20
-32.8355
 30
0.0
 10
243.2534
 20
-33.4847
 30
0.0
 10
243.2534
 20
-34.2855
 30
0.0
 10
243.2534
 20
-34.2855
 30
0.0
 10
243.2534
 20
-35.0863
 30
0.0
 10
243.9026
 20
-35.7355
 30
0.0
 10
244.7034
 20
-35.7355
 30
0.0
 10
244.7034
 20
-35.7355
 30
0.0
 10
245.5042
 20
-35.7355
 30
0.0
 10
246.1534
 20
-35.0863
 30
0.0
 10
246.1534
 20
-34.2855
 30
0.0
  0
SPLINE
  5
149
330
1F
100
AcDbEntity
  8
Layer 1
370
    15
100
AcDbSpline
210
0.0
220
0.0
230
1.0
 70
    11
 71
     3
 72
    20
 73
    16
 74
     0
 42
0.0000000001
 43
0.0000000001
 12
1.0
 22
0.0
 32
0.0
 13
1.0
 23
0.0
 33
0.0
 40
0.0
 40
0.0
 40
0.0
 40
0.0
 40
0.2
 40
0.2
 40
0.2
 40
0.2
 40
0.4
 40
0.4
 40
0.4
 40
0.4
 40
0.6
 40
0.6
 40
0.6
 40
0.6
 40
1.0
 40
1.0
 40
1.0
 40
1.0
 10
217.1534
 20
-38.6353
 30
0.0
 10
217.1534
 20
-37.8345
 30
0.0
 10
216.5042
 20
-37.1853
 30
0.0
 10
215.7034
 20
-37.1853
 30
0.0
 10
215.7034
 20
-37.1853
 30
0.0
 10
214.9026
 20
-37.1853
 30
0.0
 10
214.2534
 20
-37.8345
 30
0.0
 10
214.2534
 20
-38.6353
 30
0.0
 10
214.2534
 20
-38.6353
 30
0.0
 10
214.2534
 20
-39.4361
 30
0.0
 10
214.9026
 20
-40.0853
 30
0.0
 10
215.7034
 20
-40.0853
 30
0.0
 10
215.7034
 20
-40.0853
 30
0.0
 10
216.5042
 20
-40.0853
 30
0.0
 10
217.1534
 20
-39.4361
 30
0.0
 10
217.1534
 20
-38.6353
 30
0.0
  0
SPLINE
  5
14A
330
1F
100
AcDbEntity
  8
Layer 1
370
    15
100
AcDbSpline
210
0.0
220
0.0
230
1.0
 70
    11
 71
     3
 72
    20
 73
    16
 74
     0
 42
0.0000000001
 43
0.0000000001
 12
1.0
 22
0.0
 32
0.0
 13
1.0
 23
0.0
 33
0.0
 40
0.0
 40
0.0
 40
0.0
 40
0.0
 40
0.2
 40
0.2
 40
0.2
 40
0.2
 40
0.4
 40
0.4
 40
0.4
 40
0.4
 40
0.6
 40
0.6
 40
0.6
 40
0.6
 40
1.0
 40
1.0
 40
1.0
 40
1.0
 10
231.6534
 20
34.5138
 30
0.0
 10
231.6534
 20
35.3146
 30
0.0
 10
231.0042
 20
35.9638
 30
0.0
 10
230.2034
 20
35.9638
 30
0.0
 10
230.2034
 20
35.9638
 30
0.0
 10
229.4026
 20
35.9638
 30
0.0
 10
228.7534
 20
35.3146
 30
0.0
 10
228.7534
 20
34.5138
 30
0.0
 10
228.7534
 20
34.5138
 30
0.0
 10
228.7534
 20
33.713
 30
0.0
 10
229.4026
 20
33.0638
 30
0.0
 10
230.2034
 20
33.0638
 30
0.0
 10
230.2034
 20
33.0638
 30
0.0
 10
231.0042
 20
33.0638
 30
0.0
 10
231.6534
 20
33.713
 30
0.0
 10
231.6534
 20
34.5138
 30
0.0
  0
SPLINE
  5
14B
330
1F
100
AcDbEntity
  8
Layer 1
370
    15
100
AcDbSpline
210
0.0
220
0.0
230
1.0
 70
    11
 71
     3
 72
    20
 73
    16
 74
     0
 42
0.0000000001
 43
0.0000000001
 12
1.0
 22
0.0
 32
0.0
 13
1.0
 23
0.0
 33
0.0
 40
0.0
 40
0.0
 40
0.0
 40
0.0
 40
0.2
 40
0.2
 40
0.2
 40
0.2
 40
0.4
 40
0.4
 40
0.4
 40
0.4
 40
0.6
 40
0.6
 40
0.6
 40
0.6
 40
1.0
 40
1.0
 40
1.0
 40
1.0
 10
202.6534
 20
38.8636
 30
0.0
 10
202.6534
 20
39.6644
 30
0.0
 10
202.0042
 20
40.3136
 30
0.0
 10
201.2034
 20
40.3136
 30
0.0
 10
201.2034
 20
40.3136
 30
0.0
 10
200.4026
 20
40.3136
 30
0.0
 10
199.7534
 20
39.6644
 30
0.0
 10
199.7534
 20
38.8636
 30
0.0
 10
199.7534
 20
38.8636
 30
0.0
 10
199.7534
 20
38.0628
 30
0.0
 10
200.4026
 20
37.4136
 30
0.0
 10
201.2034
 20
37.4136
 30
0.0
 10
201.2034
 20
37.4136
 30
0.0
 10
202.0042
 20
37.4136
 30
0.0
 10
202.6534
 20
38.0628
 30
0.0
 10
202.6534
 20
38.8636
 30
0.0
  0
SPLINE
  5
14C
330
1F
100
AcDbEntity
  8
Layer 1
370
    15
100
AcDbSpline
210
0.0
220
0.0
230
1.0
 70
    11
 71
     3
 72
    20
 73
    16
 74
     0
 42
0.0000000001
 43
0.0000000001
 12
1.0
 22
0.0
 32
0.0
 13
1.0
 23
0.0
 33
0.0
 40
0.0
 40
0.0
 40
0.0
 40
0.0
 40
0.2
 40
0.2
 40
0.2
 40
0.2
 40
0.4
 40
0.4
 40
0.4
 40
0.4
 40
0.6
 40
0.6
 40
0.6
 40
0.6
 40
1.0
 40
1.0
 40
1.0
 40
1.0
 10
115.6534
 20
40.0267
 30
0.0
 10
115.6534
 20
40.8275
 30
0.0
 10
115.0042
 20
41.4767
 30
0.0
 10
114.2034
 20
41.4767
 30
0.0
 10
114.2034
 20
41.4767
 30
0.0
 10
113.4026
 20
41.4767
 30
0.0
 10
112.7534
 20
40.8275
 30
0.0
 10
112.7534
 20
40.0267
 30
0.0
 10
112.7534
 20
40.0267
 30
0.0
 10
112.7534
 20
39.2259
 30
0.0
 10
113.4026
 20
38.5767
 30
0.0
 10
114.2034
 20
38.5767
 30
0.0
 10
114.2034
 20
38.5767
 30
0.0
 10
115.0042
 20
38.5767
 30
0.0
 10
115.6534
 20
39.2259
 30
0.0
 10
115.6534
 20
40.0267
 30
0.0
  0
SPLINE
  5
14D
330
1F
100
AcDbEntity
  8
Layer 1
370
    15
100
AcDbSpline
210
0.0
220
0.0
230
1.0
 70
    11
 71
     3
 72
    20
 73
    16
 74
     0
 42
0.0000000001
 43
0.0000000001
 12
1.0
 22
0.0
 32
0.0
 13
1.0
 23
0.0
 33
0.0
 40
0.0
 40
0.0
 40
0.0
 40
0.0
 40
0.2
 40
0.2
 40
0.2
 40
0.2
 40
0.4
 40
0.4
 40
0.4
 40
0.4
 40
0.6
 40
0.6
 40
0.6
 40
0.6
 40
1.0
 40
1.0
 40
1.0
 40
1.0
 10
144.6534
 20
40.0267
 30
0.0
 10
144.6534
 20
40.8275
 30
0.0
 10
144.0042
 20
41.4767
 30
0.0
 10
143.2034
 20
41.4767
 30
0.0
 10
143.2034
 20
41.4767
 30
0.0
 10
142.4026
 20
41.4767
 30
0.0
 10
141.7534
 20
40.8275
 30
0.0
 10
141.7534
 20
40.0267
 30
0.0
 10
141.7534
 20
40.0267
 30
0.0
 10
141.7534
 20
39.2259
 30
0.0
 10
142.4026
 20
38.5767
 30
0.0
 10
143.2034
 20
38.5767
 30
0.0
 10
143.2034
 20
38.5767
 30
0.0
 10
144.0042
 20
38.5767
 30
0.0
 10
144.6534
 20
39.2259
 30
0.0
 10
144.6534
 20
40.0267
 30
0.0
  0
SPLINE
  5
14E
330
1F
100
AcDbEntity
  8
Layer 1
370
    15
100
AcDbSpline
210
0.0
220
0.0
230
1.0
 70
    11
 71
     3
 72
    20
 73
    16
 74
     0
 42
0.0000000001
 43
0.0000000001
 12
1.0
 22
0.0
 32
0.0
 13
1.0
 23
0.0
 33
0.0
 40
0.0
 40
0.0
 40
0.0
 40
0.0
 40
0.2
 40
0.2
 40
0.2
 40
0.2
 40
0.4
 40
0.4
 40
0.4
 40
0.4
 40
0.6
 40
0.6
 40
0.6
 40
0.6
 40
1.0
 40
1.0
 40
1.0
 40
1.0
 10
173.6534
 20
40.0267
 30
0.0
 10
173.6534
 20
40.8275
 30
0.0
 10
173.0042
 20
41.4767
 30
0.0
 10
172.2034
 20
41.4767
 30
0.0
 10
172.2034
 20
41.4767
 30
0.0
 10
171.4026
 20
41.4767
 30
0.0
 10
170.7534
 20
40.8275
 30
0.0
 10
170.7534
 20
40.0267
 30
0.0
 10
170.7534
 20
40.0267
 30
0.0
 10
170.7534
 20
39.2259
 30
0.0
 10
171.4026
 20
38.5767
 30
0.0
 10
172.2034
 20
38.5767
 30
0.0
 10
172.2034
 20
38.5767
 30
0.0
 10
173.0042
 20
38.5767
 30
0.0
 10
173.6534
 20
39.2259
 30
0.0
 10
173.6534
 20
40.0267
 30
0.0
  0
SPLINE
  5
14F
330
1F
100
AcDbEntity
  8
Layer 1
370
    15
100
AcDbSpline
210
0.0
220
0.0
230
1.0
 70
    11
 71
     3
 72
    20
 73
    16
 74
     0
 42
0.0000000001
 43
0.0000000001
 12
1.0
 22
0.0
 32
0.0
 13
1.0
 23
0.0
 33
0.0
 40
0.0
 40
0.0
 40
0.0
 40
0.0
 40
0.2
 40
0.2
 40
0.2
 40
0.2
 40
0.4
 40
0.4
 40
0.4
 40
0.4
 40
0.6
 40
0.6
 40
0.6
 40
0.6
 40
1.0
 40
1.0
 40
1.0
 40
1.0
 10
188.1534
 20
-41.9733
 30
0.0
 10
188.1534
 20
-41.1725
 30
0.0
 10
187.5042
 20
-40.5233
 30
0.0
 10
186.7034
 20
-40.5233
 30
0.0
 10
186.7034
 20
-40.5233
 30
0.0
 10
185.9026
 20
-40.5233
 30
0.0
 10
185.2534
 20
-41.1725
 30
0.0
 10
185.2534
 20
-41.9733
 30
0.0
 10
185.2534
 20
-41.9733
 30
0.0
 10
185.2534
 20
-42.7741
 30
0.0
 10
185.9026
 20
-43.4233
 30
0.0
 10
186.7034
 20
-43.4233
 30
0.0
 10
186.7034
 20
-43.4233
 30
0.0
 10
187.5042
 20
-43.4233
 30
0.0
 10
188.1534
 20
-42.7741
 30
0.0
 10
188.1534
 20
-41.9733
 30
0.0
  0
SPLINE
  5
150
330
1F
100
AcDbEntity
  8
Layer 1
370
    15
100
AcDbSpline
210
0.0
220
0.0
230
1.0
 70
    11
 71
     3
 72
    20
 73
    16
 74
     0
 42
0.0000000001
 43
0.0000000001
 12
1.0
 22
0.0
 32
0.0
 13
1.0
 23
0.0
 33
0.0
 40
0.0
 40
0.0
 40
0.0
 40
0.0
 40
0.2
 40
0.2
 40
0.2
 40
0.2
 40
0.4
 40
0.4
 40
0.4
 40
0.4
 40
0.6
 40
0.6
 40
0.6
 40
0.6
 40
1.0
 40
1.0
 40
1.0
 40
1.0
 10
159.1534
 20
-41.9733
 30
0.0
 10
159.1534
 20
-41.1725
 30
0.0
 10
158.5042
 20
-40.5233
 30
0.0
 10
157.7034
 20
-40.5233
 30
0.0
 10
157.7034
 20
-40.5233
 30
0.0
 10
156.9026
 20
-40.5233
 30
0.0
 10
156.2534
 20
-41.1725
 30
0.0
 10
156.2534
 20
-41.9733
 30
0.0
 10
156.2534
 20
-41.9733
 30
0.0
 10
156.2534
 20
-42.7741
 30
0.0
 10
156.9026
 20
-43.4233
 30
0.0
 10
157.7034
 20
-43.4233
 30
0.0
 10
157.7034
 20
-43.4233
 30
0.0
 10
158.5042
 20
-43.4233
 30
0.0
 10
159.1534
 20
-42.7741
 30
0.0
 10
159.1534
 20
-41.9733
 30
0.0
  0
SPLINE
  5
151
330
1F
100
AcDbEntity
  8
Layer 1
370
    15
100
AcDbSpline
210
0.0
220
0.0
230
1.0
 70
    11
 71
     3
 72
    20
 73
    16
 74
     0
 42
0.0000000001
 43
0.0000000001
 12
1.0
 22
0.0
 32
0.0
 13
1.0
 23
0.0
 33
0.0
 40
0.0
 40
0.0
 40
0.0
 40
0.0
 40
0.2
 40
0.2
 40
0.2
 40
0.2
 40
0.4
 40
0.4
 40
0.4
 40
0.4
 40
0.6
 40
0.6
 40
0.6
 40
0.6
 40
1.0
 40
1.0
 40
1.0
 40
1.0
 10
130.1534
 20
-41.9733
 30
0.0
 10
130.1534
 20
-41.1725
 30
0.0
 10
129.5042
 20
-40.5233
 30
0.0
 10
128.7034
 20
-40.5233
 30
0.0
 10
128.7034
 20
-40.5233
 30
0.0
 10
127.9026
 20
-40.5233
 30
0.0
 10
127.2534
 20
-41.1725
 30
0.0
 10
127.2534
 20
-41.9733
 30
0.0
 10
127.2534
 20
-41.9733
 30
0.0
 10
127.2534
 20
-42.7741
 30
0.0
 10
127.9026
 20
-43.4233
 30
0.0
 10
128.7034
 20
-43.4233
 30
0.0
 10
128.7034
 20
-43.4233
 30
0.0
 10
129.5042
 20
-43.4233
 30
0.0
 10
130.1534
 20
-42.7741
 30
0.0
 10
130.1534
 20
-41.9733
 30
0.0
  0
SPLINE
  5
152
330
1F
100
AcDbEntity
  8
Layer 1
370
    15
100
AcDbSpline
210
0.0
220
0.0
230
1.0
 70
    11
 71
     3
 72
    20
 73
    16
 74
     0
 42
0.0000000001
 43
0.0000000001
 12
1.0
 22
0.0
 32
0.0
 13
1.0
 23
0.0
 33
0.0
 40
0.0
 40
0.0
 40
0.0
 40
0.0
 40
0.2
 40
0.2
 40
0.2
 40
0.2
 40
0.4
 40
0.4
 40
0.4
 40
0.4
 40
0.6
 40
0.6
 40
0.6
 40
0.6
 40
1.0
 40
1.0
 40
1.0
 40
1.0
 10
101.1534
 20
-41.9733
 30
0.0
 10
101.1534
 20
-41.1725
 30
0.0
 10
100.5042
 20
-40.5233
 30
0.0
 10
99.7034
 20
-40.5233
 30
0.0
 10
99.7034
 20
-40.5233
 30
0.0
 10
98.9026
 20
-40.5233
 30
0.0
 10
98.2534
 20
-41.1725
 30
0.0
 10
98.2534
 20
-41.9733
 30
0.0
 10
98.2534
 20
-41.9733
 30
0.0
 10
98.2534
 20
-42.7741
 30
0.0
 10
98.9026
 20
-43.4233
 30
0.0
 10
99.7034
 20
-43.4233
 30
0.0
 10
99.7034
 20
-43.4233
 30
0.0
 10
100.5042
 20
-43.4233
 30
0.0
 10
101.1534
 20
-42.7741
 30
0.0
 10
101.1534
 20
-41.9733
 30
0.0
  0
SPLINE
  5
153
330
1F
100
AcDbEntity
  8
Layer 1
370
    15
100
AcDbSpline
210
0.0
220
0.0
230
1.0
 70
    11
 71
     3
 72
    20
 73
    16
 74
     0
 42
0.0000000001
 43
0.0000000001
 12
1.0
 22
0.0
 32
0.0
 13
1.0
 23
0.0
 33
0.0
 40
0.0
 40
0.0
 40
0.0
 40
0.0
 40
0.2
 40
0.2
 40
0.2
 40
0.2
 40
0.4
 40
0.4
 40
0.4
 40
0.4
 40
0.6
 40
0.6
 40
0.6
 40
0.6
 40
1.0
 40
1.0
 40
1.0
 40
1.0
 10
86.6534
 20
40.0267
 30
0.0
 10
86.6534
 20
40.8275
 30
0.0
 10
86.0042
 20
41.4767
 30
0.0
 10
85.2034
 20
41.4767
 30
0.0
 10
85.2034
 20
41.4767
 30
0.0
 10
84.4026
 20
41.4767
 30
0.0
 10
83.7534
 20
40.8275
 30
0.0
 10
83.7534
 20
40.0267
 30
0.0
 10
83.7534
 20
40.0267
 30
0.0
 10
83.7534
 20
39.2259
 30
0.0
 10
84.4026
 20
38.5767
 30
0.0
 10
85.2034
 20
38.5767
 30
0.0
 10
85.2034
 20
38.5767
 30
0.0
 10
86.0042
 20
38.5767
 30
0.0
 10
86.6534
 20
39.2259
 30
0.0
 10
86.6534
 20
40.0267
 30
0.0
  0
SPLINE
  5
154
330
1F
100
AcDbEntity
  8
Layer 1
370
    15
100
AcDbSpline
210
0.0
220
0.0
230
1.0
 70
    11
 71
     3
 72
    20
 73
    16
 74
     0
 42
0.0000000001
 43
0.0000000001
 12
1.0
 22
0.0
 32
0.0
 13
1.0
 23
0.0
 33
0.0
 40
0.0
 40
0.0
 40
0.0
 40
0.0
 40
0.2
 40
0.2
 40
0.2
 40
0.2
 40
0.4
 40
0.4
 40
0.4
 40
0.4
 40
0.6
 40
0.6
 40
0.6
 40
0.6
 40
1.0
 40
1.0
 40
1.0
 40
1.0
 10
72.1534
 20
-41.9733
 30
0.0
 10
72.1534
 20
-41.1725
 30
0.0
 10
71.5042
 20
-40.5233
 30
0.0
 10
70.7034
 20
-40.5233
 30
0.0
 10
70.7034
 20
-40.5233
 30
0.0
 10
69.9026
 20
-40.5233
 30
0.0
 10
69.2534
 20
-41.1725
 30
0.0
 10
69.2534
 20
-41.9733
 30
0.0
 10
69.2534
 20
-41.9733
 30
0.0
 10
69.2534
 20
-42.7741
 30
0.0
 10
69.9026
 20
-43.4233
 30
0.0
 10
70.7034
 20
-43.4233
 30
0.0
 10
70.7034
 20
-43.4233
 30
0.0
 10
71.5042
 20
-43.4233
 30
0.0
 10
72.1534
 20
-42.7741
 30
0.0
 10
72.1534
 20
-41.9733
 30
0.0
  0
SPLINE
  5
155
330
1F
100
AcDbEntity
  8
Layer 1
370
    15
100
AcDbSpline
210
0.0
220
0.0
230
1.0
 70
    11
 71
     3
 72
    20
 73
    16
 74
     0
 42
0.0000000001
 43
0.0000000001
 12
1.0
 22
0.0
 32
0.0
 13
1.0
 23
0.0
 33
0.0
 40
0.0
 40
0.0
 40
0.0
 40
0.0
 40
0.2
 40
0.2
 40
0.2
 40
0.2
 40
0.4
 40
0.4
 40
0.4
 40
0.4
 40
0.6
 40
0.6
 40
0.6
 40
0.6
 40
1.0
 40
1.0
 40
1.0
 40
1.0
 10
43.1534
 20
-41.9733
 30
0.0
 10
43.1534
 20
-41.1725
 30
0.0
 10
42.5042
 20
-40.5233
 30
0.0
 10
41.7034
 20
-40.5233
 30
0.0
 10
41.7034
 20
-40.5233
 30
0.0
 10
40.9026
 20
-40.5233
 30
0.0
 10
40.2534
 20
-41.1725
 30
0.0
 10
40.2534
 20
-41.9733
 30
0.0
 10
40.2534
 20
-41.9733
 30
0.0
 10
40.2534
 20
-42.7741
 30
0.0
 10
40.9026
 20
-43.4233
 30
0.0
 10
41.7034
 20
-43.4233
 30
0.0
 10
41.7034
 20
-43.4233
 30
0.0
 10
42.5042
 20
-43.4233
 30
0.0
 10
43.1534
 20
-42.7741
 30
0.0
 10
43.1534
 20
-41.9733
 30
0.0
  0
SPLINE
  5
156
330
1F
100
AcDbEntity
  8
Layer 1
370
    15
100
AcDbSpline
210
0.0
220
0.0
230
1.0
 70
    11
 71
     3
 72
    20
 73
    16
 74
     0
 42
0.0000000001
 43
0.0000000001
 12
1.0
 22
0.0
 32
0.0
 13
1.0
 23
0.0
 33
0.0
 40
0.0
 40
0.0
 40
0.0
 40
0.0
 40
0.2
 40
0.2
 40
0.2
 40
0.2
 40
0.4
 40
0.4
 40
0.4
 40
0.4
 40
0.6
 40
0.6
 40
0.6
 40
0.6
 40
1.0
 40
1.0
 40
1.0
 40
1.0
 10
57.6534
 20
40.0267
 30
0.0
 10
57.6534
 20
40.8275
 30
0.0
 10
57.0042
 20
41.4767
 30
0.0
 10
56.2034
 20
41.4767
 30
0.0
 10
56.2034
 20
41.4767
 30
0.0
 10
55.4026
 20
41.4767
 30
0.0
 10
54.7534
 20
40.8275
 30
0.0
 10
54.7534
 20
40.0267
 30
0.0
 10
54.7534
 20
40.0267
 30
0.0
 10
54.7534
 20
39.2259
 30
0.0
 10
55.4026
 20
38.5767
 30
0.0
 10
56.2034
 20
38.5767
 30
0.0
 10
56.2034
 20
38.5767
 30
0.0
 10
57.0042
 20
38.5767
 30
0.0
 10
57.6534
 20
39.2259
 30
0.0
 10
57.6534
 20
40.0267
 30
0.0
  0
SPLINE
  5
157
330
1F
100
AcDbEntity
  8
Layer 1
370
    15
100
AcDbSpline
210
0.0
220
0.0
230
1.0
 70
    11
 71
     3
 72
    20
 73
    16
 74
     0
 42
0.0000000001
 43
0.0000000001
 12
1.0
 22
0.0
 32
0.0
 13
1.0
 23
0.0
 33
0.0
 40
0.0
 40
0.0
 40
0.0
 40
0.0
 40
0.2
 40
0.2
 40
0.2
 40
0.2
 40
0.4
 40
0.4
 40
0.4
 40
0.4
 40
0.6
 40
0.6
 40
0.6
 40
0.6
 40
1.0
 40
1.0
 40
1.0
 40
1.0
 10
28.6534
 20
40.0267
 30
0.0
 10
28.6534
 20
40.8275
 30
0.0
 10
28.0042
 20
41.4767
 30
0.0
 10
27.2034
 20
41.4767
 30
0.0
 10
27.2034
 20
41.4767
 30
0.0
 10
26.4026
 20
41.4767
 30
0.0
 10
25.7534
 20
40.8275
 30
0.0
 10
25.7534
 20
40.0267
 30
0.0
 10
25.7534
 20
40.0267
 30
0.0
 10
25.7534
 20
39.2259
 30
0.0
 10
26.4026
 20
38.5767
 30
0.0
 10
27.2034
 20
38.5767
 30
0.0
 10
27.2034
 20
38.5767
 30
0.0
 10
28.0042
 20
38.5767
 30
0.0
 10
28.6534
 20
39.2259
 30
0.0
 10
28.6534
 20
40.0267
 30
0.0
  0
SPLINE
  5
158
330
1F
100
AcDbEntity
  8
Layer 1
370
    15
100
AcDbSpline
210
0.0
220
0.0
230
1.0
 70
    11
 71
     3
 72
    20
 73
    16
 74
     0
 42
0.0000000001
 43
0.0000000001
 12
1.0
 22
0.0
 32
0.0
 13
1.0
 23
0.0
 33
0.0
 40
0.0
 40
0.0
 40
0.0
 40
0.0
 40
0.2
 40
0.2
 40
0.2
 40
0.2
 40
0.4
 40
0.4
 40
0.4
 40
0.4
 40
0.6
 40
0.6
 40
0.6
 40
0.6
 40
1.0
 40
1.0
 40
1.0
 40
1.0
 10
14.1534
 20
-41.9733
 30
0.0
 10
14.1534
 20
-41.1725
 30
0.0
 10
13.5042
 20
-40.5233
 30
0.0
 10
12.7034
 20
-40.5233
 30
0.0
 10
12.7034
 20
-40.5233
 30
0.0
 10
11.9026
 20
-40.5233
 30
0.0
 10
11.2534
 20
-41.1725
 30
0.0
 10
11.2534
 20
-41.9733
 30
0.0
 10
11.2534
 20
-41.9733
 30
0.0
 10
11.2534
 20
-42.7741
 30
0.0
 10
11.9026
 20
-43.4233
 30
0.0
 10
12.7034
 20
-43.4233
 30
0.0
 10
12.7034
 20
-43.4233
 30
0.0
 10
13.5042
 20
-43.4233
 30
0.0
 10
14.1534
 20
-42.7741
 30
0.0
 10
14.1534
 20
-41.9733
 30
0.0
  0
SPLINE
  5
159
330
1F
100
AcDbEntity
  8
Layer 1
370
    15
100
AcDbSpline
210
0.0
220
0.0
230
1.0
 70
    11
 71
     3
 72
    20
 73
    16
 74
     0
 42
0.0000000001
 43
0.0000000001
 12
1.0
 22
0.0
 32
0.0
 13
1.0
 23
0.0
 33
0.0
 40
0.0
 40
0.0
 40
0.0
 40
0.0
 40
0.2
 40
0.2
 40
0.2
 40
0.2
 40
0.4
 40
0.4
 40
0.4
 40
0.4
 40
0.6
 40
0.6
 40
0.6
 40
0.6
 40
1.0
 40
1.0
 40
1.0
 40
1.0
 10
-14.8466
 20
-41.9733
 30
0.0
 10
-14.8466
 20
-41.1725
 30
0.0
 10
-15.4958
 20
-40.5233
 30
0.0
 10
-16.2966
 20
-40.5233
 30
0.0
 10
-16.2966
 20
-40.5233
 30
0.0
 10
-17.0974
 20
-40.5233
 30
0.0
 10
-17.7466
 20
-41.1725
 30
0.0
 10
-17.7466
 20
-41.9733
 30
0.0
 10
-17.7466
 20
-41.9733
 30
0.0
 10
-17.7466
 20
-42.7741
 30
0.0
 10
-17.0974
 20
-43.4233
 30
0.0
 10
-16.2966
 20
-43.4233
 30
0.0
 10
-16.2966
 20
-43.4233
 30
0.0
 10
-15.4958
 20
-43.4233
 30
0.0
 10
-14.8466
 20
-42.7741
 30
0.0
 10
-14.8466
 20
-41.9733
 30
0.0
  0
SPLINE
  5
15A
330
1F
100
AcDbEntity
  8
Layer 1
370
    15
100
AcDbSpline
210
0.0
220
0.0
230
1.0
 70
    11
 71
     3
 72
    20
 73
    16
 74
     0
 42
0.0000000001
 43
0.0000000001
 12
1.0
 22
0.0
 32
0.0
 13
1.0
 23
0.0
 33
0.0
 40
0.0
 40
0.0
 40
0.0
 40
0.0
 40
0.2
 40
0.2
 40
0.2
 40
0.2
 40
0.4
 40
0.4
 40
0.4
 40
0.4
 40
0.6
 40
0.6
 40
0.6
 40
0.6
 40
1.0
 40
1.0
 40
1.0
 40
1.0
 10
-0.3466
 20
40.0267
 30
0.0
 10
-0.3466
 20
40.8275
 30
0.0
 10
-0.9958
 20
41.4767
 30
0.0
 10
-1.7966
 20
41.4767
 30
0.0
 10
-1.7966
 20
41.4767
 30
0.0
 10
-2.5974
 20
41.4767
 30
0.0
 10
-3.2466
 20
40.8275
 30
0.0
 10
-3.2466
 20
40.0267
 30
0.0
 10
-3.2466
 20
40.0267
 30
0.0
 10
-3.2466
 20
39.2259
 30
0.0
 10
-2.5974
 20
38.5767
 30
0.0
 10
-1.7966
 20
38.5767
 30
0.0
 10
-1.7966
 20
38.5767
 30
0.0
 10
-0.9958
 20
38.5767
 30
0.0
 10
-0.3466
 20
39.2259
 30
0.0
 10
-0.3466
 20
40.0267
 30
0.0
  0
SPLINE
  5
15B
330
1F
100
AcDbEntity
  8
Layer 1
370
    15
100
AcDbSpline
210
0.0
220
0.0
230
1.0
 70
    11
 71
     3
 72
    20
 73
    16
 74
     0
 42
0.0000000001
 43
0.0000000001
 12
1.0
 22
0.0
 32
0.0
 13
1.0
 23
0.0
 33
0.0
 40
0.0
 40
0.0
 40
0.0
 40
0.0
 40
0.2
 40
0.2
 40
0.2
 40
0.2
 40
0.4
 40
0.4
 40
0.4
 40
0.4
 40
0.6
 40
0.6
 40
0.6
 40
0.6
 40
1.0
 40
1.0
 40
1.0
 40
1.0
 10
-29.3466
 20
40.0267
 30
0.0
 10
-29.3466
 20
40.8275
 30
0.0
 10
-29.9958
 20
41.4767
 30
0.0
 10
-30.7966
 20
41.4767
 30
0.0
 10
-30.7966
 20
41.4767
 30
0.0
 10
-31.5974
 20
41.4767
 30
0.0
 10
-32.2466
 20
40.8275
 30
0.0
 10
-32.2466
 20
40.0267
 30
0.0
 10
-32.2466
 20
40.0267
 30
0.0
 10
-32.2466
 20
39.2259
 30
0.0
 10
-31.5974
 20
38.5767
 30
0.0
 10
-30.7966
 20
38.5767
 30
0.0
 10
-30.7966
 20
38.5767
 30
0.0
 10
-29.9958
 20
38.5767
 30
0.0
 10
-29.3466
 20
39.2259
 30
0.0
 10
-29.3466
 20
40.0267
 30
0.0
  0
SPLINE
  5
15C
330
1F
100
AcDbEntity
  8
Layer 1
370
    15
100
AcDbSpline
210
0.0
220
0.0
230
1.0
 70
    11
 71
     3
 72
    20
 73
    16
 74
     0
 42
0.0000000001
 43
0.0000000001
 12
1.0
 22
0.0
 32
0.0
 13
1.0
 23
0.0
 33
0.0
 40
0.0
 40
0.0
 40
0.0
 40
0.0
 40
0.2
 40
0.2
 40
0.2
 40
0.2
 40
0.4
 40
0.4
 40
0.4
 40
0.4
 40
0.6
 40
0.6
 40
0.6
 40
0.6
 40
1.0
 40
1.0
 40
1.0
 40
1.0
 10
-43.8466
 20
-41.9733
 30
0.0
 10
-43.8466
 20
-41.1725
 30
0.0
 10
-44.4958
 20
-40.5233
 30
0.0
 10
-45.2966
 20
-40.5233
 30
0.0
 10
-45.2966
 20
-40.5233
 30
0.0
 10
-46.0974
 20
-40.5233
 30
0.0
 10
-46.7466
 20
-41.1725
 30
0.0
 10
-46.7466
 20
-41.9733
 30
0.0
 10
-46.7466
 20
-41.9733
 30
0.0
 10
-46.7466
 20
-42.7741
 30
0.0
 10
-46.0974
 20
-43.4233
 30
0.0
 10
-45.2966
 20
-43.4233
 30
0.0
 10
-45.2966
 20
-43.4233
 30
0.0
 10
-44.4958
 20
-43.4233
 30
0.0
 10
-43.8466
 20
-42.7741
 30
0.0
 10
-43.8466
 20
-41.9733
 30
0.0
  0
SPLINE
  5
15D
330
1F
100
AcDbEntity
  8
Layer 1
370
    15
100
AcDbSpline
210
0.0
220
0.0
230
1.0
 70
    11
 71
     3
 72
    20
 73
    16
 74
     0
 42
0.0000000001
 43
0.0000000001
 12
1.0
 22
0.0
 32
0.0
 13
1.0
 23
0.0
 33
0.0
 40
0.0
 40
0.0
 40
0.0
 40
0.0
 40
0.2
 40
0.2
 40
0.2
 40
0.2
 40
0.4
 40
0.4
 40
0.4
 40
0.4
 40
0.6
 40
0.6
 40
0.6
 40
0.6
 40
1.0
 40
1.0
 40
1.0
 40
1.0
 10
-72.8466
 20
-41.9733
 30
0.0
 10
-72.8466
 20
-41.1725
 30
0.0
 10
-73.4958
 20
-40.5233
 30
0.0
 10
-74.2966
 20
-40.5233
 30
0.0
 10
-74.2966
 20
-40.5233
 30
0.0
 10
-75.0974
 20
-40.5233
 30
0.0
 10
-75.7466
 20
-41.1725
 30
0.0
 10
-75.7466
 20
-41.9733
 30
0.0
 10
-75.7466
 20
-41.9733
 30
0.0
 10
-75.7466
 20
-42.7741
 30
0.0
 10
-75.0974
 20
-43.4233
 30
0.0
 10
-74.2966
 20
-43.4233
 30
0.0
 10
-74.2966
 20
-43.4233
 30
0.0
 10
-73.4958
 20
-43.4233
 30
0.0
 10
-72.8466
 20
-42.7741
 30
0.0
 10
-72.8466
 20
-41.9733
 30
0.0
  0
SPLINE
  5
15E
330
1F
100
AcDbEntity
  8
Layer 1
370
    15
100
AcDbSpline
210
0.0
220
0.0
230
1.0
 70
    11
 71
     3
 72
    20
 73
    16
 74
     0
 42
0.0000000001
 43
0.0000000001
 12
1.0
 22
0.0
 32
0.0
 13
1.0
 23
0.0
 33
0.0
 40
0.0
 40
0.0
 40
0.0
 40
0.0
 40
0.2
 40
0.2
 40
0.2
 40
0.2
 40
0.4
 40
0.4
 40
0.4
 40
0.4
 40
0.6
 40
0.6
 40
0.6
 40
0.6
 40
1.0
 40
1.0
 40
1.0
 40
1.0
 10
-101.8466
 20
-41.9733
 30
0.0
 10
-101.8466
 20
-41.1725
 30
0.0
 10
-102.4958
 20
-40.5233
 30
0.0
 10
-103.2966
 20
-40.5233
 30
0.0
 10
-103.2966
 20
-40.5233
 30
0.0
 10
-104.0974
 20
-40.5233
 30
0.0
 10
-104.7466
 20
-41.1725
 30
0.0
 10
-104.7466
 20
-41.9733
 30
0.0
 10
-104.7466
 20
-41.9733
 30
0.0
 10
-104.7466
 20
-42.7741
 30
0.0
 10
-104.0974
 20
-43.4233
 30
0.0
 10
-103.2966
 20
-43.4233
 30
0.0
 10
-103.2966
 20
-43.4233
 30
0.0
 10
-102.4958
 20
-43.4233
 30
0.0
 10
-101.8466
 20
-42.7741
 30
0.0
 10
-101.8466
 20
-41.9733
 30
0.0
  0
SPLINE
  5
15F
330
1F
100
AcDbEntity
  8
Layer 1
370
    15
100
AcDbSpline
210
0.0
220
0.0
230
1.0
 70
    11
 71
     3
 72
    20
 73
    16
 74
     0
 42
0.0000000001
 43
0.0000000001
 12
1.0
 22
0.0
 32
0.0
 13
1.0
 23
0.0
 33
0.0
 40
0.0
 40
0.0
 40
0.0
 40
0.0
 40
0.2
 40
0.2
 40
0.2
 40
0.2
 40
0.4
 40
0.4
 40
0.4
 40
0.4
 40
0.6
 40
0.6
 40
0.6
 40
0.6
 40
1.0
 40
1.0
 40
1.0
 40
1.0
 10
-130.8466
 20
-41.9733
 30
0.0
 10
-130.8466
 20
-41.1725
 30
0.0
 10
-131.4958
 20
-40.5233
 30
0.0
 10
-132.2966
 20
-40.5233
 30
0.0
 10
-132.2966
 20
-40.5233
 30
0.0
 10
-133.0974
 20
-40.5233
 30
0.0
 10
-133.7466
 20
-41.1725
 30
0.0
 10
-133.7466
 20
-41.9733
 30
0.0
 10
-133.7466
 20
-41.9733
 30
0.0
 10
-133.7466
 20
-42.7741
 30
0.0
 10
-133.0974
 20
-43.4233
 30
0.0
 10
-132.2966
 20
-43.4233
 30
0.0
 10
-132.2966
 20
-43.4233
 30
0.0
 10
-131.4958
 20
-43.4233
 30
0.0
 10
-130.8466
 20
-42.7741
 30
0.0
 10
-130.8466
 20
-41.9733
 30
0.0
  0
SPLINE
  5
160
330
1F
100
AcDbEntity
  8
Layer 1
370
    15
100
AcDbSpline
210
0.0
220
0.0
230
1.0
 70
    11
 71
     3
 72
    20
 73
    16
 74
     0
 42
0.0000000001
 43
0.0000000001
 12
1.0
 22
0.0
 32
0.0
 13
1.0
 23
0.0
 33
0.0
 40
0.0
 40
0.0
 40
0.0
 40
0.0
 40
0.2
 40
0.2
 40
0.2
 40
0.2
 40
0.4
 40
0.4
 40
0.4
 40
0.4
 40
0.6
 40
0.6
 40
0.6
 40
0.6
 40
1.0
 40
1.0
 40
1.0
 40
1.0
 10
-58.3466
 20
40.0267
 30
0.0
 10
-58.3466
 20
40.8275
 30
0.0
 10
-58.9958
 20
41.4767
 30
0.0
 10
-59.7966
 20
41.4767
 30
0.0
 10
-59.7966
 20
41.4767
 30
0.0
 10
-60.5974
 20
41.4767
 30
0.0
 10
-61.2466
 20
40.8275
 30
0.0
 10
-61.2466
 20
40.0267
 30
0.0
 10
-61.2466
 20
40.0267
 30
0.0
 10
-61.2466
 20
39.2259
 30
0.0
 10
-60.5974
 20
38.5767
 30
0.0
 10
-59.7966
 20
38.5767
 30
0.0
 10
-59.7966
 20
38.5767
 30
0.0
 10
-58.9958
 20
38.5767
 30
0.0
 10
-58.3466
 20
39.2259
 30
0.0
 10
-58.3466
 20
40.0267
 30
0.0
  0
SPLINE
  5
161
330
1F
100
AcDbEntity
  8
Layer 1
370
    15
100
AcDbSpline
210
0.0
220
0.0
230
1.0
 70
    11
 71
     3
 72
    20
 73
    16
 74
     0
 42
0.0000000001
 43
0.0000000001
 12
1.0
 22
0.0
 32
0.0
 13
1.0
 23
0.0
 33
0.0
 40
0.0
 40
0.0
 40
0.0
 40
0.0
 40
0.2
 40
0.2
 40
0.2
 40
0.2
 40
0.4
 40
0.4
 40
0.4
 40
0.4
 40
0.6
 40
0.6
 40
0.6
 40
0.6
 40
1.0
 40
1.0
 40
1.0
 40
1.0
 10
-87.3466
 20
40.0267
 30
0.0
 10
-87.3466
 20
40.8275
 30
0.0
 10
-87.9958
 20
41.4767
 30
0.0
 10
-88.7966
 20
41.4767
 30
0.0
 10
-88.7966
 20
41.4767
 30
0.0
 10
-89.5974
 20
41.4767
 30
0.0
 10
-90.2466
 20
40.8275
 30
0.0
 10
-90.2466
 20
40.0267
 30
0.0
 10
-90.2466
 20
40.0267
 30
0.0
 10
-90.2466
 20
39.2259
 30
0.0
 10
-89.5974
 20
38.5767
 30
0.0
 10
-88.7966
 20
38.5767
 30
0.0
 10
-88.7966
 20
38.5767
 30
0.0
 10
-87.9958
 20
38.5767
 30
0.0
 10
-87.3466
 20
39.2259
 30
0.0
 10
-87.3466
 20
40.0267
 30
0.0
  0
SPLINE
  5
162
330
1F
100
AcDbEntity
  8
Layer 1
370
    15
100
AcDbSpline
210
0.0
220
0.0
230
1.0
 70
    11
 71
     3
 72
    20
 73
    16
 74
     0
 42
0.0000000001
 43
0.0000000001
 12
1.0
 22
0.0
 32
0.0
 13
1.0
 23
0.0
 33
0.0
 40
0.0
 40
0.0
 40
0.0
 40
0.0
 40
0.2
 40
0.2
 40
0.2
 40
0.2
 40
0.4
 40
0.4
 40
0.4
 40
0.4
 40
0.6
 40
0.6
 40
0.6
 40
0.6
 40
1.0
 40
1.0
 40
1.0
 40
1.0
 10
-116.3466
 20
40.0267
 30
0.0
 10
-116.3466
 20
40.8275
 30
0.0
 10
-116.9958
 20
41.4767
 30
0.0
 10
-117.7966
 20
41.4767
 30
0.0
 10
-117.7966
 20
41.4767
 30
0.0
 10
-118.5974
 20
41.4767
 30
0.0
 10
-119.2466
 20
40.8275
 30
0.0
 10
-119.2466
 20
40.0267
 30
0.0
 10
-119.2466
 20
40.0267
 30
0.0
 10
-119.2466
 20
39.2259
 30
0.0
 10
-118.5974
 20
38.5767
 30
0.0
 10
-117.7966
 20
38.5767
 30
0.0
 10
-117.7966
 20
38.5767
 30
0.0
 10
-116.9958
 20
38.5767
 30
0.0
 10
-116.3466
 20
39.2259
 30
0.0
 10
-116.3466
 20
40.0267
 30
0.0
  0
SPLINE
  5
163
330
1F
100
AcDbEntity
  8
Layer 1
370
    15
100
AcDbSpline
210
0.0
220
0.0
230
1.0
 70
    11
 71
     3
 72
    20
 73
    16
 74
     0
 42
0.0000000001
 43
0.0000000001
 12
1.0
 22
0.0
 32
0.0
 13
1.0
 23
0.0
 33
0.0
 40
0.0
 40
0.0
 40
0.0
 40
0.0
 40
0.2
 40
0.2
 40
0.2
 40
0.2
 40
0.4
 40
0.4
 40
0.4
 40
0.4
 40
0.6
 40
0.6
 40
0.6
 40
0.6
 40
1.0
 40
1.0
 40
1.0
 40
1.0
 10
-145.3466
 20
40.0267
 30
0.0
 10
-145.3466
 20
40.8275
 30
0.0
 10
-145.9958
 20
41.4767
 30
0.0
 10
-146.7966
 20
41.4767
 30
0.0
 10
-146.7966
 20
41.4767
 30
0.0
 10
-147.5974
 20
41.4767
 30
0.0
 10
-148.2466
 20
40.8275
 30
0.0
 10
-148.2466
 20
40.0267
 30
0.0
 10
-148.2466
 20
40.0267
 30
0.0
 10
-148.2466
 20
39.2259
 30
0.0
 10
-147.5974
 20
38.5767
 30
0.0
 10
-146.7966
 20
38.5767
 30
0.0
 10
-146.7966
 20
38.5767
 30
0.0
 10
-145.9958
 20
38.5767
 30
0.0
 10
-145.3466
 20
39.2259
 30
0.0
 10
-145.3466
 20
40.0267
 30
0.0
  0
SPLINE
  5
164
330
1F
100
AcDbEntity
  8
Layer 1
370
    15
100
AcDbSpline
210
0.0
220
0.0
230
1.0
 70
    11
 71
     3
 72
    20
 73
    16
 74
     0
 42
0.0000000001
 43
0.0000000001
 12
1.0
 22
0.0
 32
0.0
 13
1.0
 23
0.0
 33
0.0
 40
0.0
 40
0.0
 40
0.0
 40
0.0
 40
0.2
 40
0.2
 40
0.2
 40
0.2
 40
0.4
 40
0.4
 40
0.4
 40
0.4
 40
0.6
 40
0.6
 40
0.6
 40
0.6
 40
1.0
 40
1.0
 40
1.0
 40
1.0
 10
-174.3466
 20
40.0267
 30
0.0
 10
-174.3466
 20
40.8275
 30
0.0
 10
-174.9958
 20
41.4767
 30
0.0
 10
-175.7966
 20
41.4767
 30
0.0
 10
-175.7966
 20
41.4767
 30
0.0
 10
-176.5974
 20
41.4767
 30
0.0
 10
-177.2466
 20
40.8275
 30
0.0
 10
-177.2466
 20
40.0267
 30
0.0
 10
-177.2466
 20
40.0267
 30
0.0
 10
-177.2466
 20
39.2259
 30
0.0
 10
-176.5974
 20
38.5767
 30
0.0
 10
-175.7966
 20
38.5767
 30
0.0
 10
-175.7966
 20
38.5767
 30
0.0
 10
-174.9958
 20
38.5767
 30
0.0
 10
-174.3466
 20
39.2259
 30
0.0
 10
-174.3466
 20
40.0267
 30
0.0
  0
SPLINE
  5
165
330
1F
100
AcDbEntity
  8
Layer 1
370
    15
100
AcDbSpline
210
0.0
220
0.0
230
1.0
 70
    11
 71
     3
 72
    20
 73
    16
 74
     0
 42
0.0000000001
 43
0.0000000001
 12
1.0
 22
0.0
 32
0.0
 13
1.0
 23
0.0
 33
0.0
 40
0.0
 40
0.0
 40
0.0
 40
0.0
 40
0.2
 40
0.2
 40
0.2
 40
0.2
 40
0.4
 40
0.4
 40
0.4
 40
0.4
 40
0.6
 40
0.6
 40
0.6
 40
0.6
 40
1.0
 40
1.0
 40
1.0
 40
1.0
 10
-159.8466
 20
-41.9733
 30
0.0
 10
-159.8466
 20
-41.1725
 30
0.0
 10
-160.4958
 20
-40.5233
 30
0.0
 10
-161.2966
 20
-40.5233
 30
0.0
 10
-161.2966
 20
-40.5233
 30
0.0
 10
-162.0974
 20
-40.5233
 30
0.0
 10
-162.7466
 20
-41.1725
 30
0.0
 10
-162.7466
 20
-41.9733
 30
0.0
 10
-162.7466
 20
-41.9733
 30
0.0
 10
-162.7466
 20
-42.7741
 30
0.0
 10
-162.0974
 20
-43.4233
 30
0.0
 10
-161.2966
 20
-43.4233
 30
0.0
 10
-161.2966
 20
-43.4233
 30
0.0
 10
-160.4958
 20
-43.4233
 30
0.0
 10
-159.8466
 20
-42.7741
 30
0.0
 10
-159.8466
 20
-41.9733
 30
0.0
  0
SPLINE
  5
166
330
1F
100
AcDbEntity
  8
Layer 1
370
    15
100
AcDbSpline
210
0.0
220
0.0
230
1.0
 70
     8
 71
     3
 72
    12
 73
     8
 74
     0
 42
0.0000000001
 43
0.0000000001
 12
1.0
 22
0.0
 32
0.0
 13
1.0
 23
0.0
 33
0.0
 40
0.0
 40
0.0
 40
0.0
 40
0.0
 40
0.3333333333333333
 40
0.3333333333333333
 40
0.3333333333333333
 40
0.3333333333333333
 40
1.0
 40
1.0
 40
1.0
 40
1.0
 10
-189.5466
 20
-44.9733
 30
0.0
 10
-187.8897
 20
-44.9733
 30
0.0
 10
-186.5466
 20
-43.6302
 30
0.0
 10
-186.5466
 20
-41.9733
 30
0.0
 10
-186.5466
 20
-41.9733
 30
0.0
 10
-186.5466
 20
-40.3165
 30
0.0
 10
-187.8897
 20
-38.9733
 30
0.0
 10
-189.5466
 20
-38.9733
 30
0.0
  0
SPLINE
  5
167
330
1F
100
AcDbEntity
  8
Layer 1
370
    15
100
AcDbSpline
210
0.0
220
0.0
230
1.0
 70
    24
 71
     3
 72
     8
 73
     4
 74
     0
 42
0.0000000001
 43
0.0000000001
 12
1.0
 22
0.0
 32
0.0
 13
1.0
 23
0.0
 33
0.0
 40
0.0
 40
0.0
 40
0.0
 40
0.0
 40
1.0
 40
1.0
 40
1.0
 40
1.0
 10
-202.5466
 20
-44.9733
 30
0.0
 10
-202.5466
 20
-44.9733
 30
0.0
 10
-189.5466
 20
-44.9733
 30
0.0
 10
-189.5466
 20
-44.9733
 30
0.0
  0
SPLINE
  5
168
330
1F
100
AcDbEntity
  8
Layer 1
370
    15
100
AcDbSpline
210
0.0
220
0.0
230
1.0
 70
    24
 71
     3
 72
     8
 73
     4
 74
     0
 42
0.0000000001
 43
0.0000000001
 12
1.0
 22
0.0
 32
0.0
 13
1.0
 23
0.0
 33
0.0
 40
0.0
 40
0.0
 40
0.0
 40
0.0
 40
1.0
 40
1.0
 40
1.0
 40
1.0
 10
-202.5466
 20
-48.9732
 30
0.0
 10
-202.5466
 20
-48.9732
 30
0.0
 10
-202.5466
 20
-44.9733
 30
0.0
 10
-202.5466
 20
-44.9733
 30
0.0
  0
SPLINE
  5
169
330
1F
100
AcDbEntity
  8
Layer 1
370
    15
100
AcDbSpline
210
0.0
220
0.0
230
1.0
 70
    24
 71
     3
 72
     8
 73
     4
 74
     0
 42
0.0000000001
 43
0.0000000001
 12
1.0
 22
0.0
 32
0.0
 13
1.0
 23
0.0
 33
0.0
 40
0.0
 40
0.0
 40
0.0
 40
0.0
 40
1.0
 40
1.0
 40
1.0
 40
1.0
 10
-202.5466
 20
-48.9732
 30
0.0
 10
-202.5466
 20
-48.9732
 30
0.0
 10
-183.5441
 20
-48.9732
 30
0.0
 10
-183.5441
 20
-48.9732
 30
0.0
  0
SPLINE
  5
16A
330
1F
100
AcDbEntity
  8
Layer 1
370
    15
100
AcDbSpline
210
0.0
220
0.0
230
1.0
 70
     8
 71
     3
 72
     8
 73
     4
 74
     0
 42
0.0000000001
 43
0.0000000001
 12
1.0
 22
0.0
 32
0.0
 13
1.0
 23
0.0
 33
0.0
 40
0.0
 40
0.0
 40
0.0
 40
0.0
 40
1.0
 40
1.0
 40
1.0
 40
1.0
 10
-183.5441
 20
-48.9732
 30
0.0
 10
-182.8795
 20
-48.9732
 30
0.0
 10
-182.2153
 20
-48.9401
 30
0.0
 10
-181.5541
 20
-48.874
 30
0.0
  0
SPLINE
  5
16B
330
1F
100
AcDbEntity
  8
Layer 1
370
    15
100
AcDbSpline
210
0.0
220
0.0
230
1.0
 70
    24
 71
     3
 72
     8
 73
     4
 74
     0
 42
0.0000000001
 43
0.0000000001
 12
1.0
 22
0.0
 32
0.0
 13
1.0
 23
0.0
 33
0.0
 40
0.0
 40
0.0
 40
0.0
 40
0.0
 40
1.0
 40
1.0
 40
1.0
 40
1.0
 10
-181.5541
 20
-48.874
 30
0.0
 10
-181.5541
 20
-48.874
 30
0.0
 10
-153.5391
 20
-46.0726
 30
0.0
 10
-153.5391
 20
-46.0726
 30
0.0
  0
SPLINE
  5
16C
330
1F
100
AcDbEntity
  8
Layer 1
370
    15
100
AcDbSpline
210
0.0
220
0.0
230
1.0
 70
     8
 71
     3
 72
     8
 73
     4
 74
     0
 42
0.0000000001
 43
0.0000000001
 12
1.0
 22
0.0
 32
0.0
 13
1.0
 23
0.0
 33
0.0
 40
0.0
 40
0.0
 40
0.0
 40
0.0
 40
1.0
 40
1.0
 40
1.0
 40
1.0
 10
-151.5491
 20
-45.9733
 30
0.0
 10
-152.2137
 20
-45.9733
 30
0.0
 10
-152.8779
 20
-46.0064
 30
0.0
 10
-153.5391
 20
-46.0726
 30
0.0
  0
SPLINE
  5
16D
330
1F
100
AcDbEntity
  8
Layer 1
370
    15
100
AcDbSpline
210
0.0
220
0.0
230
1.0
 70
    24
 71
     3
 72
     8
 73
     4
 74
     0
 42
0.0000000001
 43
0.0000000001
 12
1.0
 22
0.0
 32
0.0
 13
1.0
 23
0.0
 33
0.0
 40
0.0
 40
0.0
 40
0.0
 40
0.0
 40
1.0
 40
1.0
 40
1.0
 40
1.0
 10
-151.5491
 20
-45.9733
 30
0.0
 10
-151.5491
 20
-45.9733
 30
0.0
 10
191.8742
 20
-45.9733
 30
0.0
 10
191.8742
 20
-45.9733
 30
0.0
  0
SPLINE
  5
16E
330
1F
100
AcDbEntity
  8
Layer 1
370
    15
100
AcDbSpline
210
0.0
220
0.0
230
1.0
 70
     8
 71
     3
 72
     8
 73
     4
 74
     0
 42
0.0000000001
 43
0.0000000001
 12
1.0
 22
0.0
 32
0.0
 13
1.0
 23
0.0
 33
0.0
 40
0.0
 40
0.0
 40
0.0
 40
0.0
 40
1.0
 40
1.0
 40
1.0
 40
1.0
 10
191.8742
 20
-45.9733
 30
0.0
 10
192.9254
 20
-45.9733
 30
0.0
 10
193.9749
 20
-45.8904
 30
0.0
 10
195.013
 20
-45.7255
 30
0.0
  0
SPLINE
  5
16F
330
1F
100
AcDbEntity
  8
Layer 1
370
    15
100
AcDbSpline
210
0.0
220
0.0
230
1.0
 70
    24
 71
     3
 72
     8
 73
     4
 74
     0
 42
0.0000000001
 43
0.0000000001
 12
1.0
 22
0.0
 32
0.0
 13
1.0
 23
0.0
 33
0.0
 40
0.0
 40
0.0
 40
0.0
 40
0.0
 40
1.0
 40
1.0
 40
1.0
 40
1.0
 10
195.013
 20
-45.7255
 30
0.0
 10
195.013
 20
-45.7255
 30
0.0
 10
291.7673
 20
-30.3504
 30
0.0
 10
291.7673
 20
-30.3504
 30
0.0
  0
SPLINE
  5
170
330
1F
100
AcDbEntity
  8
Layer 1
370
    15
100
AcDbSpline
210
0.0
220
0.0
230
1.0
 70
     8
 71
     3
 72
     8
 73
     4
 74
     0
 42
0.0000000001
 43
0.0000000001
 12
1.0
 22
0.0
 32
0.0
 13
1.0
 23
0.0
 33
0.0
 40
0.0
 40
0.0
 40
0.0
 40
0.0
 40
1.0
 40
1.0
 40
1.0
 40
1.0
 10
291.7673
 20
-30.3504
 30
0.0
 10
292.7385
 20
-30.1961
 30
0.0
 10
293.4534
 20
-29.3586
 30
0.0
 10
293.4534
 20
-28.3752
 30
0.0
  0
SPLINE
  5
171
330
1F
100
AcDbEntity
  8
Layer 1
370
    15
100
AcDbSpline
210
0.0
220
0.0
230
1.0
 70
    24
 71
     3
 72
     8
 73
     4
 74
     0
 42
0.0000000001
 43
0.0000000001
 12
1.0
 22
0.0
 32
0.0
 13
1.0
 23
0.0
 33
0.0
 40
0.0
 40
0.0
 40
0.0
 40
0.0
 40
1.0
 40
1.0
 40
1.0
 40
1.0
 10
293.4534
 20
-26.9733
 30
0.0
 10
293.4534
 20
-26.9733
 30
0.0
 10
293.4534
 20
-28.3752
 30
0.0
 10
293.4534
 20
-28.3752
 30
0.0
  0
SPLINE
  5
172
330
1F
100
AcDbEntity
  8
Layer 1
370
    15
100
AcDbSpline
210
0.0
220
0.0
230
1.0
 70
    24
 71
     3
 72
     8
 73
     4
 74
     0
 42
0.0000000001
 43
0.0000000001
 12
1.0
 22
0.0
 32
0.0
 13
1.0
 23
0.0
 33
0.0
 40
0.0
 40
0.0
 40
0.0
 40
0.0
 40
1.0
 40
1.0
 40
1.0
 40
1.0
 10
290.7534
 20
-26.9733
 30
0.0
 10
290.7534
 20
-26.9733
 30
0.0
 10
293.4534
 20
-26.9733
 30
0.0
 10
293.4534
 20
-26.9733
 30
0.0
  0
SPLINE
  5
173
330
1F
100
AcDbEntity
  8
Layer 1
370
    15
100
AcDbSpline
210
0.0
220
0.0
230
1.0
 70
    24
 71
     3
 72
     8
 73
     4
 74
     0
 42
0.0000000001
 43
0.0000000001
 12
1.0
 22
0.0
 32
0.0
 13
1.0
 23
0.0
 33
0.0
 40
0.0
 40
0.0
 40
0.0
 40
0.0
 40
1.0
 40
1.0
 40
1.0
 40
1.0
 10
290.7534
 20
-2.4233
 30
0.0
 10
290.7534
 20
-2.4233
 30
0.0
 10
290.7534
 20
-26.9733
 30
0.0
 10
290.7534
 20
-26.9733
 30
0.0
  0
SPLINE
  5
174
330
1F
100
AcDbEntity
  8
Layer 1
370
    15
100
AcDbSpline
210
0.0
220
0.0
230
1.0
 70
    24
 71
     3
 72
     8
 73
     4
 74
     0
 42
0.0000000001
 43
0.0000000001
 12
1.0
 22
0.0
 32
0.0
 13
1.0
 23
0.0
 33
0.0
 40
0.0
 40
0.0
 40
0.0
 40
0.0
 40
1.0
 40
1.0
 40
1.0
 40
1.0
 10
43.7534
 20
-2.4233
 30
0.0
 10
43.7534
 20
-2.4233
 30
0.0
 10
290.7534
 20
-2.4233
 30
0.0
 10
290.7534
 20
-2.4233
 30
0.0
  0
SPLINE
  5
175
330
1F
100
AcDbEntity
  8
Layer 1
370
    15
100
AcDbSpline
210
0.0
220
0.0
230
1.0
 70
    24
 71
     3
 72
     8
 73
     4
 74
     0
 42
0.0000000001
 43
0.0000000001
 12
1.0
 22
0.0
 32
0.0
 13
1.0
 23
0.0
 33
0.0
 40
0.0
 40
0.0
 40
0.0
 40
0.0
 40
1.0
 40
1.0
 40
1.0
 40
1.0
 10
43.7534
 20
0.4767
 30
0.0
 10
43.7534
 20
0.4767
 30
0.0
 10
43.7534
 20
-2.4233
 30
0.0
 10
43.7534
 20
-2.4233
 30
0.0
  0
SPLINE
  5
176
330
1F
100
AcDbEntity
  8
Layer 1
370
    15
100
AcDbSpline
210
0.0
220
0.0
230
1.0
 70
    24
 71
     3
 72
     8
 73
     4
 74
     0
 42
0.0000000001
 43
0.0000000001
 12
1.0
 22
0.0
 32
0.0
 13
1.0
 23
0.0
 33
0.0
 40
0.0
 40
0.0
 40
0.0
 40
0.0
 40
1.0
 40
1.0
 40
1.0
 40
1.0
 10
43.7534
 20
0.4767
 30
0.0
 10
43.7534
 20
0.4767
 30
0.0
 10
290.7534
 20
0.4767
 30
0.0
 10
290.7534
 20
0.4767
 30
0.0
  0
SPLINE
  5
177
330
1F
100
AcDbEntity
  8
Layer 1
370
    15
100
AcDbSpline
210
0.0
220
0.0
230
1.0
 70
    24
 71
     3
 72
     8
 73
     4
 74
     0
 42
0.0000000001
 43
0.0000000001
 12
1.0
 22
0.0
 32
0.0
 13
1.0
 23
0.0
 33
0.0
 40
0.0
 40
0.0
 40
0.0
 40
0.0
 40
1.0
 40
1.0
 40
1.0
 40
1.0
 10
290.7534
 20
25.0267
 30
0.0
 10
290.7534
 20
25.0267
 30
0.0
 10
290.7534
 20
0.4767
 30
0.0
 10
290.7534
 20
0.4767
 30
0.0
  0
SPLINE
  5
178
330
1F
100
AcDbEntity
  8
Layer 1
370
    15
100
AcDbSpline
210
0.0
220
0.0
230
1.0
 70
    24
 71
     3
 72
     8
 73
     4
 74
     0
 42
0.0000000001
 43
0.0000000001
 12
1.0
 22
0.0
 32
0.0
 13
1.0
 23
0.0
 33
0.0
 40
0.0
 40
0.0
 40
0.0
 40
0.0
 40
1.0
 40
1.0
 40
1.0
 40
1.0
 10
293.4534
 20
25.0267
 30
0.0
 10
293.4534
 20
25.0267
 30
0.0
 10
290.7534
 20
25.0267
 30
0.0
 10
290.7534
 20
25.0267
 30
0.0
  0
SPLINE
  5
179
330
1F
100
AcDbEntity
  8
Layer 1
370
    15
100
AcDbSpline
210
0.0
220
0.0
230
1.0
 70
    24
 71
     3
 72
     8
 73
     4
 74
     0
 42
0.0000000001
 43
0.0000000001
 12
1.0
 22
0.0
 32
0.0
 13
1.0
 23
0.0
 33
0.0
 40
0.0
 40
0.0
 40
0.0
 40
0.0
 40
1.0
 40
1.0
 40
1.0
 40
1.0
 10
293.4534
 20
26.4286
 30
0.0
 10
293.4534
 20
26.4286
 30
0.0
 10
293.4534
 20
25.0267
 30
0.0
 10
293.4534
 20
25.0267
 30
0.0
  0
SPLINE
  5
17A
330
1F
100
AcDbEntity
  8
Layer 1
370
    15
100
AcDbSpline
210
0.0
220
0.0
230
1.0
 70
     8
 71
     3
 72
     8
 73
     4
 74
     0
 42
0.0000000001
 43
0.0000000001
 12
1.0
 22
0.0
 32
0.0
 13
1.0
 23
0.0
 33
0.0
 40
0.0
 40
0.0
 40
0.0
 40
0.0
 40
1.0
 40
1.0
 40
1.0
 40
1.0
 10
293.4534
 20
26.4286
 30
0.0
 10
293.4534
 20
27.412
 30
0.0
 10
292.7385
 20
28.2495
 30
0.0
 10
291.7673
 20
28.4038
 30
0.0
  0
SPLINE
  5
17B
330
1F
100
AcDbEntity
  8
Layer 1
370
    15
100
AcDbSpline
210
0.0
220
0.0
230
1.0
 70
    24
 71
     3
 72
     8
 73
     4
 74
     0
 42
0.0000000001
 43
0.0000000001
 12
1.0
 22
0.0
 32
0.0
 13
1.0
 23
0.0
 33
0.0
 40
0.0
 40
0.0
 40
0.0
 40
0.0
 40
1.0
 40
1.0
 40
1.0
 40
1.0
 10
195.013
 20
43.7789
 30
0.0
 10
195.013
 20
43.7789
 30
0.0
 10
291.7673
 20
28.4038
 30
0.0
 10
291.7673
 20
28.4038
 30
0.0
  0
SPLINE
  5
17C
330
1F
100
AcDbEntity
  8
Layer 1
370
    15
100
AcDbSpline
210
0.0
220
0.0
230
1.0
 70
     8
 71
     3
 72
     8
 73
     4
 74
     0
 42
0.0000000001
 43
0.0000000001
 12
1.0
 22
0.0
 32
0.0
 13
1.0
 23
0.0
 33
0.0
 40
0.0
 40
0.0
 40
0.0
 40
0.0
 40
1.0
 40
1.0
 40
1.0
 40
1.0
 10
195.013
 20
43.7789
 30
0.0
 10
193.9749
 20
43.9438
 30
0.0
 10
192.9254
 20
44.0267
 30
0.0
 10
191.8742
 20
44.0267
 30
0.0
  0
SPLINE
  5
17D
330
1F
100
AcDbEntity
  8
Layer 1
370
    15
100
AcDbSpline
210
0.0
220
0.0
230
1.0
 70
    24
 71
     3
 72
     8
 73
     4
 74
     0
 42
0.0000000001
 43
0.0000000001
 12
1.0
 22
0.0
 32
0.0
 13
1.0
 23
0.0
 33
0.0
 40
0.0
 40
0.0
 40
0.0
 40
0.0
 40
1.0
 40
1.0
 40
1.0
 40
1.0
 10
-151.5491
 20
44.0267
 30
0.0
 10
-151.5491
 20
44.0267
 30
0.0
 10
191.8742
 20
44.0267
 30
0.0
 10
191.8742
 20
44.0267
 30
0.0
  0
SPLINE
  5
17E
330
1F
100
AcDbEntity
  8
Layer 1
370
    15
100
AcDbSpline
210
0.0
220
0.0
230
1.0
 70
     8
 71
     3
 72
     8
 73
     4
 74
     0
 42
0.0000000001
 43
0.0000000001
 12
1.0
 22
0.0
 32
0.0
 13
1.0
 23
0.0
 33
0.0
 40
0.0
 40
0.0
 40
0.0
 40
0.0
 40
1.0
 40
1.0
 40
1.0
 40
1.0
 10
-153.5391
 20
44.126
 30
0.0
 10
-152.8779
 20
44.0598
 30
0.0
 10
-152.2137
 20
44.0267
 30
0.0
 10
-151.5491
 20
44.0267
 30
0.0
  0
SPLINE
  5
17F
330
1F
100
AcDbEntity
  8
Layer 1
370
    15
100
AcDbSpline
210
0.0
220
0.0
230
1.0
 70
    24
 71
     3
 72
     8
 73
     4
 74
     0
 42
0.0000000001
 43
0.0000000001
 12
1.0
 22
0.0
 32
0.0
 13
1.0
 23
0.0
 33
0.0
 40
0.0
 40
0.0
 40
0.0
 40
0.0
 40
1.0
 40
1.0
 40
1.0
 40
1.0
 10
-181.5541
 20
46.9274
 30
0.0
 10
-181.5541
 20
46.9274
 30
0.0
 10
-153.5391
 20
44.126
 30
0.0
 10
-153.5391
 20
44.126
 30
0.0
  0
SPLINE
  5
180
330
1F
100
AcDbEntity
  8
Layer 1
370
    15
100
AcDbSpline
210
0.0
220
0.0
230
1.0
 70
     8
 71
     3
 72
     8
 73
     4
 74
     0
 42
0.0000000001
 43
0.0000000001
 12
1.0
 22
0.0
 32
0.0
 13
1.0
 23
0.0
 33
0.0
 40
0.0
 40
0.0
 40
0.0
 40
0.0
 40
1.0
 40
1.0
 40
1.0
 40
1.0
 10
-181.5541
 20
46.9274
 30
0.0
 10
-182.2153
 20
46.9935
 30
0.0
 10
-182.8795
 20
47.0266
 30
0.0
 10
-183.5441
 20
47.0266
 30
0.0
  0
SPLINE
  5
181
330
1F
100
AcDbEntity
  8
Layer 1
370
    15
100
AcDbSpline
210
0.0
220
0.0
230
1.0
 70
    24
 71
     3
 72
     8
 73
     4
 74
     0
 42
0.0000000001
 43
0.0000000001
 12
1.0
 22
0.0
 32
0.0
 13
1.0
 23
0.0
 33
0.0
 40
0.0
 40
0.0
 40
0.0
 40
0.0
 40
1.0
 40
1.0
 40
1.0
 40
1.0
 10
-202.5466
 20
47.0266
 30
0.0
 10
-202.5466
 20
47.0266
 30
0.0
 10
-183.5441
 20
47.0266
 30
0.0
 10
-183.5441
 20
47.0266
 30
0.0
  0
SPLINE
  5
182
330
1F
100
AcDbEntity
  8
Layer 1
370
    15
100
AcDbSpline
210
0.0
220
0.0
230
1.0
 70
    24
 71
     3
 72
     8
 73
     4
 74
     0
 42
0.0000000001
 43
0.0000000001
 12
1.0
 22
0.0
 32
0.0
 13
1.0
 23
0.0
 33
0.0
 40
0.0
 40
0.0
 40
0.0
 40
0.0
 40
1.0
 40
1.0
 40
1.0
 40
1.0
 10
-202.5466
 20
-38.9733
 30
0.0
 10
-202.5466
 20
-38.9733
 30
0.0
 10
-202.5466
 20
47.0266
 30
0.0
 10
-202.5466
 20
47.0266
 30
0.0
  0
SPLINE
  5
183
330
1F
100
AcDbEntity
  8
Layer 1
370
    15
100
AcDbSpline
210
0.0
220
0.0
230
1.0
 70
    24
 71
     3
 72
     8
 73
     4
 74
     0
 42
0.0000000001
 43
0.0000000001
 12
1.0
 22
0.0
 32
0.0
 13
1.0
 23
0.0
 33
0.0
 40
0.0
 40
0.0
 40
0.0
 40
0.0
 40
1.0
 40
1.0
 40
1.0
 40
1.0
 10
-202.5466
 20
-38.9733
 30
0.0
 10
-202.5466
 20
-38.9733
 30
0.0
 10
-189.5466
 20
-38.9733
 30
0.0
 10
-189.5466
 20
-38.9733
 30
0.0
  0
SPLINE
  5
184
330
1F
100
AcDbEntity
  8
Layer 1
370
    15
100
AcDbSpline
210
0.0
220
0.0
230
1.0
 70
    24
 71
     3
 72
     8
 73
     4
 74
     0
 42
0.0000000001
 43
0.0000000001
 12
1.0
 22
0.0
 32
0.0
 13
1.0
 23
0.0
 33
0.0
 40
0.0
 40
0.0
 40
0.0
 40
0.0
 40
1.0
 40
1.0
 40
1.0
 40
1.0
 10
-52.5466
 20
-26.9733
 30
0.0
 10
-52.5466
 20
-26.9733
 30
0.0
 10
-49.5466
 20
-26.9733
 30
0.0
 10
-49.5466
 20
-26.9733
 30
0.0
  0
SPLINE
  5
185
330
1F
100
AcDbEntity
  8
Layer 1
370
    15
100
AcDbSpline
210
0.0
220
0.0
230
1.0
 70
    24
 71
     3
 72
     8
 73
     4
 74
     0
 42
0.0000000001
 43
0.0000000001
 12
1.0
 22
0.0
 32
0.0
 13
1.0
 23
0.0
 33
0.0
 40
0.0
 40
0.0
 40
0.0
 40
0.0
 40
1.0
 40
1.0
 40
1.0
 40
1.0
 10
-52.5466
 20
-26.9733
 30
0.0
 10
-52.5466
 20
-26.9733
 30
0.0
 10
-52.5466
 20
25.0267
 30
0.0
 10
-52.5466
 20
25.0267
 30
0.0
  0
SPLINE
  5
186
330
1F
100
AcDbEntity
  8
Layer 1
370
    15
100
AcDbSpline
210
0.0
220
0.0
230
1.0
 70
    24
 71
     3
 72
     8
 73
     4
 74
     0
 42
0.0000000001
 43
0.0000000001
 12
1.0
 22
0.0
 32
0.0
 13
1.0
 23
0.0
 33
0.0
 40
0.0
 40
0.0
 40
0.0
 40
0.0
 40
1.0
 40
1.0
 40
1.0
 40
1.0
 10
-52.5466
 20
25.0267
 30
0.0
 10
-52.5466
 20
25.0267
 30
0.0
 10
-49.5466
 20
25.0267
 30
0.0
 10
-49.5466
 20
25.0267
 30
0.0
  0
SPLINE
  5
187
330
1F
100
AcDbEntity
  8
Layer 1
370
    15
100
AcDbSpline
210
0.0
220
0.0
230
1.0
 70
    24
 71
     3
 72
     8
 73
     4
 74
     0
 42
0.0000000001
 43
0.0000000001
 12
1.0
 22
0.0
 32
0.0
 13
1.0
 23
0.0
 33
0.0
 40
0.0
 40
0.0
 40
0.0
 40
0.0
 40
1.0
 40
1.0
 40
1.0
 40
1.0
 10
-49.5466
 20
25.0267
 30
0.0
 10
-49.5466
 20
25.0267
 30
0.0
 10
-49.5466
 20
-26.9733
 30
0.0
 10
-49.5466
 20
-26.9733
 30
0.0
  0
SPLINE
  5
188
330
1F
100
AcDbEntity
  8
Layer 1
370
    15
100
AcDbSpline
210
0.0
220
0.0
230
1.0
 70
    11
 71
     3
 72
    20
 73
    16
 74
     0
 42
0.0000000001
 43
0.0000000001
 12
1.0
 22
0.0
 32
0.0
 13
1.0
 23
0.0
 33
0.0
 40
0.0
 40
0.0
 40
0.0
 40
0.0
 40
0.2
 40
0.2
 40
0.2
 40
0.2
 40
0.4
 40
0.4
 40
0.4
 40
0.4
 40
0.6
 40
0.6
 40
0.6
 40
0.6
 40
1.0
 40
1.0
 40
1.0
 40
1.0
 10
-188.6466
 20
64.0577
 30
0.0
 10
-188.6466
 20
64.8585
 30
0.0
 10
-187.9974
 20
65.5077
 30
0.0
 10
-187.1966
 20
65.5077
 30
0.0
 10
-187.1966
 20
65.5077
 30
0.0
 10
-186.3958
 20
65.5077
 30
0.0
 10
-185.7466
 20
64.8585
 30
0.0
 10
-185.7466
 20
64.0577
 30
0.0
 10
-185.7466
 20
64.0577
 30
0.0
 10
-185.7466
 20
63.2569
 30
0.0
 10
-186.3958
 20
62.6077
 30
0.0
 10
-187.1966
 20
62.6077
 30
0.0
 10
-187.1966
 20
62.6077
 30
0.0
 10
-187.9974
 20
62.6077
 30
0.0
 10
-188.6466
 20
63.2569
 30
0.0
 10
-188.6466
 20
64.0577
 30
0.0
  0
SPLINE
  5
189
330
1F
100
AcDbEntity
  8
Layer 1
370
    15
100
AcDbSpline
210
0.0
220
0.0
230
1.0
 70
    11
 71
     3
 72
    20
 73
    16
 74
     0
 42
0.0000000001
 43
0.0000000001
 12
1.0
 22
0.0
 32
0.0
 13
1.0
 23
0.0
 33
0.0
 40
0.0
 40
0.0
 40
0.0
 40
0.0
 40
0.2
 40
0.2
 40
0.2
 40
0.2
 40
0.4
 40
0.4
 40
0.4
 40
0.4
 40
0.6
 40
0.6
 40
0.6
 40
0.6
 40
1.0
 40
1.0
 40
1.0
 40
1.0
 10
-203.1466
 20
119.8076
 30
0.0
 10
-203.1466
 20
120.6084
 30
0.0
 10
-202.4974
 20
121.2576
 30
0.0
 10
-201.6966
 20
121.2576
 30
0.0
 10
-201.6966
 20
121.2576
 30
0.0
 10
-200.8958
 20
121.2576
 30
0.0
 10
-200.2466
 20
120.6084
 30
0.0
 10
-200.2466
 20
119.8076
 30
0.0
 10
-200.2466
 20
119.8076
 30
0.0
 10
-200.2466
 20
119.0068
 30
0.0
 10
-200.8958
 20
118.3576
 30
0.0
 10
-201.6966
 20
118.3576
 30
0.0
 10
-201.6966
 20
118.3576
 30
0.0
 10
-202.4974
 20
118.3576
 30
0.0
 10
-203.1466
 20
119.0067
 30
0.0
 10
-203.1466
 20
119.8076
 30
0.0
  0
SPLINE
  5
18A
330
1F
100
AcDbEntity
  8
Layer 1
370
    15
100
AcDbSpline
210
0.0
220
0.0
230
1.0
 70
    11
 71
     3
 72
    20
 73
    16
 74
     0
 42
0.0000000001
 43
0.0000000001
 12
1.0
 22
0.0
 32
0.0
 13
1.0
 23
0.0
 33
0.0
 40
0.0
 40
0.0
 40
0.0
 40
0.0
 40
0.2
 40
0.2
 40
0.2
 40
0.2
 40
0.4
 40
0.4
 40
0.4
 40
0.4
 40
0.6
 40
0.6
 40
0.6
 40
0.6
 40
1.0
 40
1.0
 40
1.0
 40
1.0
 10
-174.1466
 20
124.1574
 30
0.0
 10
-174.1466
 20
124.9582
 30
0.0
 10
-173.4974
 20
125.6074
 30
0.0
 10
-172.6966
 20
125.6074
 30
0.0
 10
-172.6966
 20
125.6074
 30
0.0
 10
-171.8958
 20
125.6074
 30
0.0
 10
-171.2466
 20
124.9582
 30
0.0
 10
-171.2466
 20
124.1574
 30
0.0
 10
-171.2466
 20
124.1574
 30
0.0
 10
-171.2466
 20
123.3566
 30
0.0
 10
-171.8958
 20
122.7074
 30
0.0
 10
-172.6966
 20
122.7074
 30
0.0
 10
-172.6966
 20
122.7074
 30
0.0
 10
-173.4974
 20
122.7074
 30
0.0
 10
-174.1466
 20
123.3566
 30
0.0
 10
-174.1466
 20
124.1574
 30
0.0
  0
SPLINE
  5
18B
330
1F
100
AcDbEntity
  8
Layer 1
370
    15
100
AcDbSpline
210
0.0
220
0.0
230
1.0
 70
    11
 71
     3
 72
    20
 73
    16
 74
     0
 42
0.0000000001
 43
0.0000000001
 12
1.0
 22
0.0
 32
0.0
 13
1.0
 23
0.0
 33
0.0
 40
0.0
 40
0.0
 40
0.0
 40
0.0
 40
0.2
 40
0.2
 40
0.2
 40
0.2
 40
0.4
 40
0.4
 40
0.4
 40
0.4
 40
0.6
 40
0.6
 40
0.6
 40
0.6
 40
1.0
 40
1.0
 40
1.0
 40
1.0
 10
-159.6466
 20
59.7079
 30
0.0
 10
-159.6466
 20
60.5087
 30
0.0
 10
-158.9974
 20
61.1579
 30
0.0
 10
-158.1966
 20
61.1579
 30
0.0
 10
-158.1966
 20
61.1579
 30
0.0
 10
-157.3958
 20
61.1579
 30
0.0
 10
-156.7466
 20
60.5087
 30
0.0
 10
-156.7466
 20
59.7079
 30
0.0
 10
-156.7466
 20
59.7079
 30
0.0
 10
-156.7466
 20
58.9071
 30
0.0
 10
-157.3958
 20
58.2579
 30
0.0
 10
-158.1966
 20
58.2579
 30
0.0
 10
-158.1966
 20
58.2579
 30
0.0
 10
-158.9974
 20
58.2579
 30
0.0
 10
-159.6466
 20
58.9071
 30
0.0
 10
-159.6466
 20
59.7079
 30
0.0
  0
SPLINE
  5
18C
330
1F
100
AcDbEntity
  8
Layer 1
370
    15
100
AcDbSpline
210
0.0
220
0.0
230
1.0
 70
    11
 71
     3
 72
    20
 73
    16
 74
     0
 42
0.0000000001
 43
0.0000000001
 12
1.0
 22
0.0
 32
0.0
 13
1.0
 23
0.0
 33
0.0
 40
0.0
 40
0.0
 40
0.0
 40
0.0
 40
0.2
 40
0.2
 40
0.2
 40
0.2
 40
0.4
 40
0.4
 40
0.4
 40
0.4
 40
0.6
 40
0.6
 40
0.6
 40
0.6
 40
1.0
 40
1.0
 40
1.0
 40
1.0
 10
-130.6466
 20
55.3581
 30
0.0
 10
-130.6466
 20
56.1589
 30
0.0
 10
-129.9974
 20
56.8081
 30
0.0
 10
-129.1966
 20
56.8081
 30
0.0
 10
-129.1966
 20
56.8081
 30
0.0
 10
-128.3958
 20
56.8081
 30
0.0
 10
-127.7466
 20
56.1589
 30
0.0
 10
-127.7466
 20
55.3581
 30
0.0
 10
-127.7466
 20
55.3581
 30
0.0
 10
-127.7466
 20
54.5573
 30
0.0
 10
-128.3958
 20
53.9081
 30
0.0
 10
-129.1966
 20
53.9081
 30
0.0
 10
-129.1966
 20
53.9081
 30
0.0
 10
-129.9974
 20
53.9081
 30
0.0
 10
-130.6466
 20
54.5573
 30
0.0
 10
-130.6466
 20
55.3581
 30
0.0
  0
SPLINE
  5
18D
330
1F
100
AcDbEntity
  8
Layer 1
370
    15
100
AcDbSpline
210
0.0
220
0.0
230
1.0
 70
    11
 71
     3
 72
    20
 73
    16
 74
     0
 42
0.0000000001
 43
0.0000000001
 12
1.0
 22
0.0
 32
0.0
 13
1.0
 23
0.0
 33
0.0
 40
0.0
 40
0.0
 40
0.0
 40
0.0
 40
0.2
 40
0.2
 40
0.2
 40
0.2
 40
0.4
 40
0.4
 40
0.4
 40
0.4
 40
0.6
 40
0.6
 40
0.6
 40
0.6
 40
1.0
 40
1.0
 40
1.0
 40
1.0
 10
-145.1466
 20
128.5072
 30
0.0
 10
-145.1466
 20
129.308
 30
0.0
 10
-144.4974
 20
129.9572
 30
0.0
 10
-143.6966
 20
129.9572
 30
0.0
 10
-143.6966
 20
129.9572
 30
0.0
 10
-142.8958
 20
129.9572
 30
0.0
 10
-142.2466
 20
129.308
 30
0.0
 10
-142.2466
 20
128.5072
 30
0.0
 10
-142.2466
 20
128.5072
 30
0.0
 10
-142.2466
 20
127.7064
 30
0.0
 10
-142.8958
 20
127.0572
 30
0.0
 10
-143.6966
 20
127.0572
 30
0.0
 10
-143.6966
 20
127.0572
 30
0.0
 10
-144.4974
 20
127.0572
 30
0.0
 10
-145.1466
 20
127.7064
 30
0.0
 10
-145.1466
 20
128.5072
 30
0.0
  0
SPLINE
  5
18E
330
1F
100
AcDbEntity
  8
Layer 1
370
    15
100
AcDbSpline
210
0.0
220
0.0
230
1.0
 70
    11
 71
     3
 72
    20
 73
    16
 74
     0
 42
0.0000000001
 43
0.0000000001
 12
1.0
 22
0.0
 32
0.0
 13
1.0
 23
0.0
 33
0.0
 40
0.0
 40
0.0
 40
0.0
 40
0.0
 40
0.2
 40
0.2
 40
0.2
 40
0.2
 40
0.4
 40
0.4
 40
0.4
 40
0.4
 40
0.6
 40
0.6
 40
0.6
 40
0.6
 40
1.0
 40
1.0
 40
1.0
 40
1.0
 10
-116.1466
 20
132.857
 30
0.0
 10
-116.1466
 20
133.6578
 30
0.0
 10
-115.4974
 20
134.307
 30
0.0
 10
-114.6966
 20
134.307
 30
0.0
 10
-114.6966
 20
134.307
 30
0.0
 10
-113.8958
 20
134.307
 30
0.0
 10
-113.2466
 20
133.6578
 30
0.0
 10
-113.2466
 20
132.857
 30
0.0
 10
-113.2466
 20
132.857
 30
0.0
 10
-113.2466
 20
132.0562
 30
0.0
 10
-113.8958
 20
131.407
 30
0.0
 10
-114.6966
 20
131.407
 30
0.0
 10
-114.6966
 20
131.407
 30
0.0
 10
-115.4974
 20
131.407
 30
0.0
 10
-116.1466
 20
132.0562
 30
0.0
 10
-116.1466
 20
132.857
 30
0.0
  0
SPLINE
  5
18F
330
1F
100
AcDbEntity
  8
Layer 1
370
    15
100
AcDbSpline
210
0.0
220
0.0
230
1.0
 70
    11
 71
     3
 72
    20
 73
    16
 74
     0
 42
0.0000000001
 43
0.0000000001
 12
1.0
 22
0.0
 32
0.0
 13
1.0
 23
0.0
 33
0.0
 40
0.0
 40
0.0
 40
0.0
 40
0.0
 40
0.2
 40
0.2
 40
0.2
 40
0.2
 40
0.4
 40
0.4
 40
0.4
 40
0.4
 40
0.6
 40
0.6
 40
0.6
 40
0.6
 40
1.0
 40
1.0
 40
1.0
 40
1.0
 10
-29.1466
 20
134.0201
 30
0.0
 10
-29.1466
 20
134.8209
 30
0.0
 10
-28.4974
 20
135.4701
 30
0.0
 10
-27.6966
 20
135.4701
 30
0.0
 10
-27.6966
 20
135.4701
 30
0.0
 10
-26.8958
 20
135.4701
 30
0.0
 10
-26.2466
 20
134.8209
 30
0.0
 10
-26.2466
 20
134.0201
 30
0.0
 10
-26.2466
 20
134.0201
 30
0.0
 10
-26.2466
 20
133.2193
 30
0.0
 10
-26.8958
 20
132.5701
 30
0.0
 10
-27.6966
 20
132.5701
 30
0.0
 10
-27.6966
 20
132.5701
 30
0.0
 10
-28.4974
 20
132.5701
 30
0.0
 10
-29.1466
 20
133.2193
 30
0.0
 10
-29.1466
 20
134.0201
 30
0.0
  0
SPLINE
  5
190
330
1F
100
AcDbEntity
  8
Layer 1
370
    15
100
AcDbSpline
210
0.0
220
0.0
230
1.0
 70
    11
 71
     3
 72
    20
 73
    16
 74
     0
 42
0.0000000001
 43
0.0000000001
 12
1.0
 22
0.0
 32
0.0
 13
1.0
 23
0.0
 33
0.0
 40
0.0
 40
0.0
 40
0.0
 40
0.0
 40
0.2
 40
0.2
 40
0.2
 40
0.2
 40
0.4
 40
0.4
 40
0.4
 40
0.4
 40
0.6
 40
0.6
 40
0.6
 40
0.6
 40
1.0
 40
1.0
 40
1.0
 40
1.0
 10
-58.1466
 20
134.0201
 30
0.0
 10
-58.1466
 20
134.8209
 30
0.0
 10
-57.4974
 20
135.4701
 30
0.0
 10
-56.6966
 20
135.4701
 30
0.0
 10
-56.6966
 20
135.4701
 30
0.0
 10
-55.8958
 20
135.4701
 30
0.0
 10
-55.2466
 20
134.8209
 30
0.0
 10
-55.2466
 20
134.0201
 30
0.0
 10
-55.2466
 20
134.0201
 30
0.0
 10
-55.2466
 20
133.2193
 30
0.0
 10
-55.8958
 20
132.5701
 30
0.0
 10
-56.6966
 20
132.5701
 30
0.0
 10
-56.6966
 20
132.5701
 30
0.0
 10
-57.4974
 20
132.5701
 30
0.0
 10
-58.1466
 20
133.2193
 30
0.0
 10
-58.1466
 20
134.0201
 30
0.0
  0
SPLINE
  5
191
330
1F
100
AcDbEntity
  8
Layer 1
370
    15
100
AcDbSpline
210
0.0
220
0.0
230
1.0
 70
    11
 71
     3
 72
    20
 73
    16
 74
     0
 42
0.0000000001
 43
0.0000000001
 12
1.0
 22
0.0
 32
0.0
 13
1.0
 23
0.0
 33
0.0
 40
0.0
 40
0.0
 40
0.0
 40
0.0
 40
0.2
 40
0.2
 40
0.2
 40
0.2
 40
0.4
 40
0.4
 40
0.4
 40
0.4
 40
0.6
 40
0.6
 40
0.6
 40
0.6
 40
1.0
 40
1.0
 40
1.0
 40
1.0
 10
-87.1466
 20
134.0201
 30
0.0
 10
-87.1466
 20
134.8209
 30
0.0
 10
-86.4974
 20
135.4701
 30
0.0
 10
-85.6966
 20
135.4701
 30
0.0
 10
-85.6966
 20
135.4701
 30
0.0
 10
-84.8958
 20
135.4701
 30
0.0
 10
-84.2466
 20
134.8209
 30
0.0
 10
-84.2466
 20
134.0201
 30
0.0
 10
-84.2466
 20
134.0201
 30
0.0
 10
-84.2466
 20
133.2193
 30
0.0
 10
-84.8958
 20
132.5701
 30
0.0
 10
-85.6966
 20
132.5701
 30
0.0
 10
-85.6966
 20
132.5701
 30
0.0
 10
-86.4974
 20
132.5701
 30
0.0
 10
-87.1466
 20
133.2193
 30
0.0
 10
-87.1466
 20
134.0201
 30
0.0
  0
SPLINE
  5
192
330
1F
100
AcDbEntity
  8
Layer 1
370
    15
100
AcDbSpline
210
0.0
220
0.0
230
1.0
 70
    11
 71
     3
 72
    20
 73
    16
 74
     0
 42
0.0000000001
 43
0.0000000001
 12
1.0
 22
0.0
 32
0.0
 13
1.0
 23
0.0
 33
0.0
 40
0.0
 40
0.0
 40
0.0
 40
0.0
 40
0.2
 40
0.2
 40
0.2
 40
0.2
 40
0.4
 40
0.4
 40
0.4
 40
0.4
 40
0.6
 40
0.6
 40
0.6
 40
0.6
 40
1.0
 40
1.0
 40
1.0
 40
1.0
 10
-101.6466
 20
52.0201
 30
0.0
 10
-101.6466
 20
52.8209
 30
0.0
 10
-100.9974
 20
53.4701
 30
0.0
 10
-100.1966
 20
53.4701
 30
0.0
 10
-100.1966
 20
53.4701
 30
0.0
 10
-99.3958
 20
53.4701
 30
0.0
 10
-98.7466
 20
52.8209
 30
0.0
 10
-98.7466
 20
52.0201
 30
0.0
 10
-98.7466
 20
52.0201
 30
0.0
 10
-98.7466
 20
51.2193
 30
0.0
 10
-99.3958
 20
50.5701
 30
0.0
 10
-100.1966
 20
50.5701
 30
0.0
 10
-100.1966
 20
50.5701
 30
0.0
 10
-100.9974
 20
50.5701
 30
0.0
 10
-101.6466
 20
51.2193
 30
0.0
 10
-101.6466
 20
52.0201
 30
0.0
  0
SPLINE
  5
193
330
1F
100
AcDbEntity
  8
Layer 1
370
    15
100
AcDbSpline
210
0.0
220
0.0
230
1.0
 70
    11
 71
     3
 72
    20
 73
    16
 74
     0
 42
0.0000000001
 43
0.0000000001
 12
1.0
 22
0.0
 32
0.0
 13
1.0
 23
0.0
 33
0.0
 40
0.0
 40
0.0
 40
0.0
 40
0.0
 40
0.2
 40
0.2
 40
0.2
 40
0.2
 40
0.4
 40
0.4
 40
0.4
 40
0.4
 40
0.6
 40
0.6
 40
0.6
 40
0.6
 40
1.0
 40
1.0
 40
1.0
 40
1.0
 10
-72.6466
 20
52.0201
 30
0.0
 10
-72.6466
 20
52.8209
 30
0.0
 10
-71.9974
 20
53.4701
 30
0.0
 10
-71.1966
 20
53.4701
 30
0.0
 10
-71.1966
 20
53.4701
 30
0.0
 10
-70.3958
 20
53.4701
 30
0.0
 10
-69.7466
 20
52.8209
 30
0.0
 10
-69.7466
 20
52.0201
 30
0.0
 10
-69.7466
 20
52.0201
 30
0.0
 10
-69.7466
 20
51.2193
 30
0.0
 10
-70.3958
 20
50.5701
 30
0.0
 10
-71.1966
 20
50.5701
 30
0.0
 10
-71.1966
 20
50.5701
 30
0.0
 10
-71.9974
 20
50.5701
 30
0.0
 10
-72.6466
 20
51.2193
 30
0.0
 10
-72.6466
 20
52.0201
 30
0.0
  0
SPLINE
  5
194
330
1F
100
AcDbEntity
  8
Layer 1
370
    15
100
AcDbSpline
210
0.0
220
0.0
230
1.0
 70
    11
 71
     3
 72
    20
 73
    16
 74
     0
 42
0.0000000001
 43
0.0000000001
 12
1.0
 22
0.0
 32
0.0
 13
1.0
 23
0.0
 33
0.0
 40
0.0
 40
0.0
 40
0.0
 40
0.0
 40
0.2
 40
0.2
 40
0.2
 40
0.2
 40
0.4
 40
0.4
 40
0.4
 40
0.4
 40
0.6
 40
0.6
 40
0.6
 40
0.6
 40
1.0
 40
1.0
 40
1.0
 40
1.0
 10
-43.6466
 20
52.0201
 30
0.0
 10
-43.6466
 20
52.8209
 30
0.0
 10
-42.9974
 20
53.4701
 30
0.0
 10
-42.1966
 20
53.4701
 30
0.0
 10
-42.1966
 20
53.4701
 30
0.0
 10
-41.3958
 20
53.4701
 30
0.0
 10
-40.7466
 20
52.8209
 30
0.0
 10
-40.7466
 20
52.0201
 30
0.0
 10
-40.7466
 20
52.0201
 30
0.0
 10
-40.7466
 20
51.2193
 30
0.0
 10
-41.3958
 20
50.5701
 30
0.0
 10
-42.1966
 20
50.5701
 30
0.0
 10
-42.1966
 20
50.5701
 30
0.0
 10
-42.9974
 20
50.5701
 30
0.0
 10
-43.6466
 20
51.2193
 30
0.0
 10
-43.6466
 20
52.0201
 30
0.0
  0
SPLINE
  5
195
330
1F
100
AcDbEntity
  8
Layer 1
370
    15
100
AcDbSpline
210
0.0
220
0.0
230
1.0
 70
    11
 71
     3
 72
    20
 73
    16
 74
     0
 42
0.0000000001
 43
0.0000000001
 12
1.0
 22
0.0
 32
0.0
 13
1.0
 23
0.0
 33
0.0
 40
0.0
 40
0.0
 40
0.0
 40
0.0
 40
0.2
 40
0.2
 40
0.2
 40
0.2
 40
0.4
 40
0.4
 40
0.4
 40
0.4
 40
0.6
 40
0.6
 40
0.6
 40
0.6
 40
1.0
 40
1.0
 40
1.0
 40
1.0
 10
-14.6466
 20
52.0201
 30
0.0
 10
-14.6466
 20
52.8209
 30
0.0
 10
-13.9974
 20
53.4701
 30
0.0
 10
-13.1966
 20
53.4701
 30
0.0
 10
-13.1966
 20
53.4701
 30
0.0
 10
-12.3958
 20
53.4701
 30
0.0
 10
-11.7466
 20
52.8209
 30
0.0
 10
-11.7466
 20
52.0201
 30
0.0
 10
-11.7466
 20
52.0201
 30
0.0
 10
-11.7466
 20
51.2193
 30
0.0
 10
-12.3958
 20
50.5701
 30
0.0
 10
-13.1966
 20
50.5701
 30
0.0
 10
-13.1966
 20
50.5701
 30
0.0
 10
-13.9974
 20
50.5701
 30
0.0
 10
-14.6466
 20
51.2193
 30
0.0
 10
-14.6466
 20
52.0201
 30
0.0
  0
SPLINE
  5
196
330
1F
100
AcDbEntity
  8
Layer 1
370
    15
100
AcDbSpline
210
0.0
220
0.0
230
1.0
 70
    11
 71
     3
 72
    20
 73
    16
 74
     0
 42
0.0000000001
 43
0.0000000001
 12
1.0
 22
0.0
 32
0.0
 13
1.0
 23
0.0
 33
0.0
 40
0.0
 40
0.0
 40
0.0
 40
0.0
 40
0.2
 40
0.2
 40
0.2
 40
0.2
 40
0.4
 40
0.4
 40
0.4
 40
0.4
 40
0.6
 40
0.6
 40
0.6
 40
0.6
 40
1.0
 40
1.0
 40
1.0
 40
1.0
 10
-0.1466
 20
134.0201
 30
0.0
 10
-0.1466
 20
134.8209
 30
0.0
 10
0.5026
 20
135.4701
 30
0.0
 10
1.3034
 20
135.4701
 30
0.0
 10
1.3034
 20
135.4701
 30
0.0
 10
2.1042
 20
135.4701
 30
0.0
 10
2.7534
 20
134.8209
 30
0.0
 10
2.7534
 20
134.0201
 30
0.0
 10
2.7534
 20
134.0201
 30
0.0
 10
2.7534
 20
133.2193
 30
0.0
 10
2.1042
 20
132.5701
 30
0.0
 10
1.3034
 20
132.5701
 30
0.0
 10
1.3034
 20
132.5701
 30
0.0
 10
0.5026
 20
132.5701
 30
0.0
 10
-0.1466
 20
133.2193
 30
0.0
 10
-0.1466
 20
134.0201
 30
0.0
  0
SPLINE
  5
197
330
1F
100
AcDbEntity
  8
Layer 1
370
    15
100
AcDbSpline
210
0.0
220
0.0
230
1.0
 70
    11
 71
     3
 72
    20
 73
    16
 74
     0
 42
0.0000000001
 43
0.0000000001
 12
1.0
 22
0.0
 32
0.0
 13
1.0
 23
0.0
 33
0.0
 40
0.0
 40
0.0
 40
0.0
 40
0.0
 40
0.2
 40
0.2
 40
0.2
 40
0.2
 40
0.4
 40
0.4
 40
0.4
 40
0.4
 40
0.6
 40
0.6
 40
0.6
 40
0.6
 40
1.0
 40
1.0
 40
1.0
 40
1.0
 10
14.3534
 20
52.0201
 30
0.0
 10
14.3534
 20
52.8209
 30
0.0
 10
15.0026
 20
53.4701
 30
0.0
 10
15.8034
 20
53.4701
 30
0.0
 10
15.8034
 20
53.4701
 30
0.0
 10
16.6042
 20
53.4701
 30
0.0
 10
17.2534
 20
52.8209
 30
0.0
 10
17.2534
 20
52.0201
 30
0.0
 10
17.2534
 20
52.0201
 30
0.0
 10
17.2534
 20
51.2193
 30
0.0
 10
16.6042
 20
50.5701
 30
0.0
 10
15.8034
 20
50.5701
 30
0.0
 10
15.8034
 20
50.5701
 30
0.0
 10
15.0026
 20
50.5701
 30
0.0
 10
14.3534
 20
51.2193
 30
0.0
 10
14.3534
 20
52.0201
 30
0.0
  0
SPLINE
  5
198
330
1F
100
AcDbEntity
  8
Layer 1
370
    15
100
AcDbSpline
210
0.0
220
0.0
230
1.0
 70
    11
 71
     3
 72
    20
 73
    16
 74
     0
 42
0.0000000001
 43
0.0000000001
 12
1.0
 22
0.0
 32
0.0
 13
1.0
 23
0.0
 33
0.0
 40
0.0
 40
0.0
 40
0.0
 40
0.0
 40
0.2
 40
0.2
 40
0.2
 40
0.2
 40
0.4
 40
0.4
 40
0.4
 40
0.4
 40
0.6
 40
0.6
 40
0.6
 40
0.6
 40
1.0
 40
1.0
 40
1.0
 40
1.0
 10
43.3534
 20
52.0201
 30
0.0
 10
43.3534
 20
52.8209
 30
0.0
 10
44.0026
 20
53.4701
 30
0.0
 10
44.8034
 20
53.4701
 30
0.0
 10
44.8034
 20
53.4701
 30
0.0
 10
45.6042
 20
53.4701
 30
0.0
 10
46.2534
 20
52.8209
 30
0.0
 10
46.2534
 20
52.0201
 30
0.0
 10
46.2534
 20
52.0201
 30
0.0
 10
46.2534
 20
51.2193
 30
0.0
 10
45.6042
 20
50.5701
 30
0.0
 10
44.8034
 20
50.5701
 30
0.0
 10
44.8034
 20
50.5701
 30
0.0
 10
44.0026
 20
50.5701
 30
0.0
 10
43.3534
 20
51.2193
 30
0.0
 10
43.3534
 20
52.0201
 30
0.0
  0
SPLINE
  5
199
330
1F
100
AcDbEntity
  8
Layer 1
370
    15
100
AcDbSpline
210
0.0
220
0.0
230
1.0
 70
    11
 71
     3
 72
    20
 73
    16
 74
     0
 42
0.0000000001
 43
0.0000000001
 12
1.0
 22
0.0
 32
0.0
 13
1.0
 23
0.0
 33
0.0
 40
0.0
 40
0.0
 40
0.0
 40
0.0
 40
0.2
 40
0.2
 40
0.2
 40
0.2
 40
0.4
 40
0.4
 40
0.4
 40
0.4
 40
0.6
 40
0.6
 40
0.6
 40
0.6
 40
1.0
 40
1.0
 40
1.0
 40
1.0
 10
28.8534
 20
134.0201
 30
0.0
 10
28.8534
 20
134.8209
 30
0.0
 10
29.5026
 20
135.4701
 30
0.0
 10
30.3034
 20
135.4701
 30
0.0
 10
30.3034
 20
135.4701
 30
0.0
 10
31.1042
 20
135.4701
 30
0.0
 10
31.7534
 20
134.8209
 30
0.0
 10
31.7534
 20
134.0201
 30
0.0
 10
31.7534
 20
134.0201
 30
0.0
 10
31.7534
 20
133.2193
 30
0.0
 10
31.1042
 20
132.5701
 30
0.0
 10
30.3034
 20
132.5701
 30
0.0
 10
30.3034
 20
132.5701
 30
0.0
 10
29.5026
 20
132.5701
 30
0.0
 10
28.8534
 20
133.2193
 30
0.0
 10
28.8534
 20
134.0201
 30
0.0
  0
SPLINE
  5
19A
330
1F
100
AcDbEntity
  8
Layer 1
370
    15
100
AcDbSpline
210
0.0
220
0.0
230
1.0
 70
    11
 71
     3
 72
    20
 73
    16
 74
     0
 42
0.0000000001
 43
0.0000000001
 12
1.0
 22
0.0
 32
0.0
 13
1.0
 23
0.0
 33
0.0
 40
0.0
 40
0.0
 40
0.0
 40
0.0
 40
0.2
 40
0.2
 40
0.2
 40
0.2
 40
0.4
 40
0.4
 40
0.4
 40
0.4
 40
0.6
 40
0.6
 40
0.6
 40
0.6
 40
1.0
 40
1.0
 40
1.0
 40
1.0
 10
57.8534
 20
134.0201
 30
0.0
 10
57.8534
 20
134.8209
 30
0.0
 10
58.5026
 20
135.4701
 30
0.0
 10
59.3034
 20
135.4701
 30
0.0
 10
59.3034
 20
135.4701
 30
0.0
 10
60.1042
 20
135.4701
 30
0.0
 10
60.7534
 20
134.8209
 30
0.0
 10
60.7534
 20
134.0201
 30
0.0
 10
60.7534
 20
134.0201
 30
0.0
 10
60.7534
 20
133.2193
 30
0.0
 10
60.1042
 20
132.5701
 30
0.0
 10
59.3034
 20
132.5701
 30
0.0
 10
59.3034
 20
132.5701
 30
0.0
 10
58.5026
 20
132.5701
 30
0.0
 10
57.8534
 20
133.2193
 30
0.0
 10
57.8534
 20
134.0201
 30
0.0
  0
SPLINE
  5
19B
330
1F
100
AcDbEntity
  8
Layer 1
370
    15
100
AcDbSpline
210
0.0
220
0.0
230
1.0
 70
    11
 71
     3
 72
    20
 73
    16
 74
     0
 42
0.0000000001
 43
0.0000000001
 12
1.0
 22
0.0
 32
0.0
 13
1.0
 23
0.0
 33
0.0
 40
0.0
 40
0.0
 40
0.0
 40
0.0
 40
0.2
 40
0.2
 40
0.2
 40
0.2
 40
0.4
 40
0.4
 40
0.4
 40
0.4
 40
0.6
 40
0.6
 40
0.6
 40
0.6
 40
1.0
 40
1.0
 40
1.0
 40
1.0
 10
72.3534
 20
52.0201
 30
0.0
 10
72.3534
 20
52.8209
 30
0.0
 10
73.0026
 20
53.4701
 30
0.0
 10
73.8034
 20
53.4701
 30
0.0
 10
73.8034
 20
53.4701
 30
0.0
 10
74.6042
 20
53.4701
 30
0.0
 10
75.2534
 20
52.8209
 30
0.0
 10
75.2534
 20
52.0201
 30
0.0
 10
75.2534
 20
52.0201
 30
0.0
 10
75.2534
 20
51.2193
 30
0.0
 10
74.6042
 20
50.5701
 30
0.0
 10
73.8034
 20
50.5701
 30
0.0
 10
73.8034
 20
50.5701
 30
0.0
 10
73.0026
 20
50.5701
 30
0.0
 10
72.3534
 20
51.2193
 30
0.0
 10
72.3534
 20
52.0201
 30
0.0
  0
SPLINE
  5
19C
330
1F
100
AcDbEntity
  8
Layer 1
370
    15
100
AcDbSpline
210
0.0
220
0.0
230
1.0
 70
    11
 71
     3
 72
    20
 73
    16
 74
     0
 42
0.0000000001
 43
0.0000000001
 12
1.0
 22
0.0
 32
0.0
 13
1.0
 23
0.0
 33
0.0
 40
0.0
 40
0.0
 40
0.0
 40
0.0
 40
0.2
 40
0.2
 40
0.2
 40
0.2
 40
0.4
 40
0.4
 40
0.4
 40
0.4
 40
0.6
 40
0.6
 40
0.6
 40
0.6
 40
1.0
 40
1.0
 40
1.0
 40
1.0
 10
101.3534
 20
52.0201
 30
0.0
 10
101.3534
 20
52.8209
 30
0.0
 10
102.0026
 20
53.4701
 30
0.0
 10
102.8034
 20
53.4701
 30
0.0
 10
102.8034
 20
53.4701
 30
0.0
 10
103.6042
 20
53.4701
 30
0.0
 10
104.2534
 20
52.8209
 30
0.0
 10
104.2534
 20
52.0201
 30
0.0
 10
104.2534
 20
52.0201
 30
0.0
 10
104.2534
 20
51.2193
 30
0.0
 10
103.6042
 20
50.5701
 30
0.0
 10
102.8034
 20
50.5701
 30
0.0
 10
102.8034
 20
50.5701
 30
0.0
 10
102.0026
 20
50.5701
 30
0.0
 10
101.3534
 20
51.2193
 30
0.0
 10
101.3534
 20
52.0201
 30
0.0
  0
SPLINE
  5
19D
330
1F
100
AcDbEntity
  8
Layer 1
370
    15
100
AcDbSpline
210
0.0
220
0.0
230
1.0
 70
    11
 71
     3
 72
    20
 73
    16
 74
     0
 42
0.0000000001
 43
0.0000000001
 12
1.0
 22
0.0
 32
0.0
 13
1.0
 23
0.0
 33
0.0
 40
0.0
 40
0.0
 40
0.0
 40
0.0
 40
0.2
 40
0.2
 40
0.2
 40
0.2
 40
0.4
 40
0.4
 40
0.4
 40
0.4
 40
0.6
 40
0.6
 40
0.6
 40
0.6
 40
1.0
 40
1.0
 40
1.0
 40
1.0
 10
86.8534
 20
134.0201
 30
0.0
 10
86.8534
 20
134.8209
 30
0.0
 10
87.5026
 20
135.4701
 30
0.0
 10
88.3034
 20
135.4701
 30
0.0
 10
88.3034
 20
135.4701
 30
0.0
 10
89.1042
 20
135.4701
 30
0.0
 10
89.7534
 20
134.8209
 30
0.0
 10
89.7534
 20
134.0201
 30
0.0
 10
89.7534
 20
134.0201
 30
0.0
 10
89.7534
 20
133.2193
 30
0.0
 10
89.1042
 20
132.5701
 30
0.0
 10
88.3034
 20
132.5701
 30
0.0
 10
88.3034
 20
132.5701
 30
0.0
 10
87.5026
 20
132.5701
 30
0.0
 10
86.8534
 20
133.2193
 30
0.0
 10
86.8534
 20
134.0201
 30
0.0
  0
SPLINE
  5
19E
330
1F
100
AcDbEntity
  8
Layer 1
370
    15
100
AcDbSpline
210
0.0
220
0.0
230
1.0
 70
    11
 71
     3
 72
    20
 73
    16
 74
     0
 42
0.0000000001
 43
0.0000000001
 12
1.0
 22
0.0
 32
0.0
 13
1.0
 23
0.0
 33
0.0
 40
0.0
 40
0.0
 40
0.0
 40
0.0
 40
0.2
 40
0.2
 40
0.2
 40
0.2
 40
0.4
 40
0.4
 40
0.4
 40
0.4
 40
0.6
 40
0.6
 40
0.6
 40
0.6
 40
1.0
 40
1.0
 40
1.0
 40
1.0
 10
115.8534
 20
134.0201
 30
0.0
 10
115.8534
 20
134.8209
 30
0.0
 10
116.5026
 20
135.4701
 30
0.0
 10
117.3034
 20
135.4701
 30
0.0
 10
117.3034
 20
135.4701
 30
0.0
 10
118.1042
 20
135.4701
 30
0.0
 10
118.7534
 20
134.8209
 30
0.0
 10
118.7534
 20
134.0201
 30
0.0
 10
118.7534
 20
134.0201
 30
0.0
 10
118.7534
 20
133.2193
 30
0.0
 10
118.1042
 20
132.5701
 30
0.0
 10
117.3034
 20
132.5701
 30
0.0
 10
117.3034
 20
132.5701
 30
0.0
 10
116.5026
 20
132.5701
 30
0.0
 10
115.8534
 20
133.2193
 30
0.0
 10
115.8534
 20
134.0201
 30
0.0
  0
SPLINE
  5
19F
330
1F
100
AcDbEntity
  8
Layer 1
370
    15
100
AcDbSpline
210
0.0
220
0.0
230
1.0
 70
    11
 71
     3
 72
    20
 73
    16
 74
     0
 42
0.0000000001
 43
0.0000000001
 12
1.0
 22
0.0
 32
0.0
 13
1.0
 23
0.0
 33
0.0
 40
0.0
 40
0.0
 40
0.0
 40
0.0
 40
0.2
 40
0.2
 40
0.2
 40
0.2
 40
0.4
 40
0.4
 40
0.4
 40
0.4
 40
0.6
 40
0.6
 40
0.6
 40
0.6
 40
1.0
 40
1.0
 40
1.0
 40
1.0
 10
130.3534
 20
52.0201
 30
0.0
 10
130.3534
 20
52.8209
 30
0.0
 10
131.0026
 20
53.4701
 30
0.0
 10
131.8034
 20
53.4701
 30
0.0
 10
131.8034
 20
53.4701
 30
0.0
 10
132.6042
 20
53.4701
 30
0.0
 10
133.2534
 20
52.8209
 30
0.0
 10
133.2534
 20
52.0201
 30
0.0
 10
133.2534
 20
52.0201
 30
0.0
 10
133.2534
 20
51.2193
 30
0.0
 10
132.6042
 20
50.5701
 30
0.0
 10
131.8034
 20
50.5701
 30
0.0
 10
131.8034
 20
50.5701
 30
0.0
 10
131.0026
 20
50.5701
 30
0.0
 10
130.3534
 20
51.2193
 30
0.0
 10
130.3534
 20
52.0201
 30
0.0
  0
SPLINE
  5
1A0
330
1F
100
AcDbEntity
  8
Layer 1
370
    15
100
AcDbSpline
210
0.0
220
0.0
230
1.0
 70
    11
 71
     3
 72
    20
 73
    16
 74
     0
 42
0.0000000001
 43
0.0000000001
 12
1.0
 22
0.0
 32
0.0
 13
1.0
 23
0.0
 33
0.0
 40
0.0
 40
0.0
 40
0.0
 40
0.0
 40
0.2
 40
0.2
 40
0.2
 40
0.2
 40
0.4
 40
0.4
 40
0.4
 40
0.4
 40
0.6
 40
0.6
 40
0.6
 40
0.6
 40
1.0
 40
1.0
 40
1.0
 40
1.0
 10
159.3534
 20
52.0201
 30
0.0
 10
159.3534
 20
52.8209
 30
0.0
 10
160.0026
 20
53.4701
 30
0.0
 10
160.8034
 20
53.4701
 30
0.0
 10
160.8034
 20
53.4701
 30
0.0
 10
161.6042
 20
53.4701
 30
0.0
 10
162.2534
 20
52.8209
 30
0.0
 10
162.2534
 20
52.0201
 30
0.0
 10
162.2534
 20
52.0201
 30
0.0
 10
162.2534
 20
51.2193
 30
0.0
 10
161.6042
 20
50.5701
 30
0.0
 10
160.8034
 20
50.5701
 30
0.0
 10
160.8034
 20
50.5701
 30
0.0
 10
160.0026
 20
50.5701
 30
0.0
 10
159.3534
 20
51.2193
 30
0.0
 10
159.3534
 20
52.0201
 30
0.0
  0
SPLINE
  5
1A1
330
1F
100
AcDbEntity
  8
Layer 1
370
    15
100
AcDbSpline
210
0.0
220
0.0
230
1.0
 70
    11
 71
     3
 72
    20
 73
    16
 74
     0
 42
0.0000000001
 43
0.0000000001
 12
1.0
 22
0.0
 32
0.0
 13
1.0
 23
0.0
 33
0.0
 40
0.0
 40
0.0
 40
0.0
 40
0.0
 40
0.2
 40
0.2
 40
0.2
 40
0.2
 40
0.4
 40
0.4
 40
0.4
 40
0.4
 40
0.6
 40
0.6
 40
0.6
 40
0.6
 40
1.0
 40
1.0
 40
1.0
 40
1.0
 10
188.3534
 20
52.0201
 30
0.0
 10
188.3534
 20
52.8209
 30
0.0
 10
189.0026
 20
53.4701
 30
0.0
 10
189.8034
 20
53.4701
 30
0.0
 10
189.8034
 20
53.4701
 30
0.0
 10
190.6042
 20
53.4701
 30
0.0
 10
191.2534
 20
52.8209
 30
0.0
 10
191.2534
 20
52.0201
 30
0.0
 10
191.2534
 20
52.0201
 30
0.0
 10
191.2534
 20
51.2193
 30
0.0
 10
190.6042
 20
50.5701
 30
0.0
 10
189.8034
 20
50.5701
 30
0.0
 10
189.8034
 20
50.5701
 30
0.0
 10
189.0026
 20
50.5701
 30
0.0
 10
188.3534
 20
51.2193
 30
0.0
 10
188.3534
 20
52.0201
 30
0.0
  0
SPLINE
  5
1A2
330
1F
100
AcDbEntity
  8
Layer 1
370
    15
100
AcDbSpline
210
0.0
220
0.0
230
1.0
 70
    11
 71
     3
 72
    20
 73
    16
 74
     0
 42
0.0000000001
 43
0.0000000001
 12
1.0
 22
0.0
 32
0.0
 13
1.0
 23
0.0
 33
0.0
 40
0.0
 40
0.0
 40
0.0
 40
0.0
 40
0.2
 40
0.2
 40
0.2
 40
0.2
 40
0.4
 40
0.4
 40
0.4
 40
0.4
 40
0.6
 40
0.6
 40
0.6
 40
0.6
 40
1.0
 40
1.0
 40
1.0
 40
1.0
 10
217.3534
 20
52.0201
 30
0.0
 10
217.3534
 20
52.8209
 30
0.0
 10
218.0026
 20
53.4701
 30
0.0
 10
218.8034
 20
53.4701
 30
0.0
 10
218.8034
 20
53.4701
 30
0.0
 10
219.6042
 20
53.4701
 30
0.0
 10
220.2534
 20
52.8209
 30
0.0
 10
220.2534
 20
52.0201
 30
0.0
 10
220.2534
 20
52.0201
 30
0.0
 10
220.2534
 20
51.2193
 30
0.0
 10
219.6042
 20
50.5701
 30
0.0
 10
218.8034
 20
50.5701
 30
0.0
 10
218.8034
 20
50.5701
 30
0.0
 10
218.0026
 20
50.5701
 30
0.0
 10
217.3534
 20
51.2193
 30
0.0
 10
217.3534
 20
52.0201
 30
0.0
  0
SPLINE
  5
1A3
330
1F
100
AcDbEntity
  8
Layer 1
370
    15
100
AcDbSpline
210
0.0
220
0.0
230
1.0
 70
    11
 71
     3
 72
    20
 73
    16
 74
     0
 42
0.0000000001
 43
0.0000000001
 12
1.0
 22
0.0
 32
0.0
 13
1.0
 23
0.0
 33
0.0
 40
0.0
 40
0.0
 40
0.0
 40
0.0
 40
0.2
 40
0.2
 40
0.2
 40
0.2
 40
0.4
 40
0.4
 40
0.4
 40
0.4
 40
0.6
 40
0.6
 40
0.6
 40
0.6
 40
1.0
 40
1.0
 40
1.0
 40
1.0
 10
144.8534
 20
134.0201
 30
0.0
 10
144.8534
 20
134.8209
 30
0.0
 10
145.5026
 20
135.4701
 30
0.0
 10
146.3034
 20
135.4701
 30
0.0
 10
146.3034
 20
135.4701
 30
0.0
 10
147.1042
 20
135.4701
 30
0.0
 10
147.7534
 20
134.8209
 30
0.0
 10
147.7534
 20
134.0201
 30
0.0
 10
147.7534
 20
134.0201
 30
0.0
 10
147.7534
 20
133.2193
 30
0.0
 10
147.1042
 20
132.5701
 30
0.0
 10
146.3034
 20
132.5701
 30
0.0
 10
146.3034
 20
132.5701
 30
0.0
 10
145.5026
 20
132.5701
 30
0.0
 10
144.8534
 20
133.2193
 30
0.0
 10
144.8534
 20
134.0201
 30
0.0
  0
SPLINE
  5
1A4
330
1F
100
AcDbEntity
  8
Layer 1
370
    15
100
AcDbSpline
210
0.0
220
0.0
230
1.0
 70
    11
 71
     3
 72
    20
 73
    16
 74
     0
 42
0.0000000001
 43
0.0000000001
 12
1.0
 22
0.0
 32
0.0
 13
1.0
 23
0.0
 33
0.0
 40
0.0
 40
0.0
 40
0.0
 40
0.0
 40
0.2
 40
0.2
 40
0.2
 40
0.2
 40
0.4
 40
0.4
 40
0.4
 40
0.4
 40
0.6
 40
0.6
 40
0.6
 40
0.6
 40
1.0
 40
1.0
 40
1.0
 40
1.0
 10
173.8534
 20
134.0201
 30
0.0
 10
173.8534
 20
134.8209
 30
0.0
 10
174.5026
 20
135.4701
 30
0.0
 10
175.3034
 20
135.4701
 30
0.0
 10
175.3034
 20
135.4701
 30
0.0
 10
176.1042
 20
135.4701
 30
0.0
 10
176.7534
 20
134.8209
 30
0.0
 10
176.7534
 20
134.0201
 30
0.0
 10
176.7534
 20
134.0201
 30
0.0
 10
176.7534
 20
133.2193
 30
0.0
 10
176.1042
 20
132.5701
 30
0.0
 10
175.3034
 20
132.5701
 30
0.0
 10
175.3034
 20
132.5701
 30
0.0
 10
174.5026
 20
132.5701
 30
0.0
 10
173.8534
 20
133.2193
 30
0.0
 10
173.8534
 20
134.0201
 30
0.0
  0
SPLINE
  5
1A5
330
1F
100
AcDbEntity
  8
Layer 1
370
    15
100
AcDbSpline
210
0.0
220
0.0
230
1.0
 70
    11
 71
     3
 72
    20
 73
    16
 74
     0
 42
0.0000000001
 43
0.0000000001
 12
1.0
 22
0.0
 32
0.0
 13
1.0
 23
0.0
 33
0.0
 40
0.0
 40
0.0
 40
0.0
 40
0.0
 40
0.2
 40
0.2
 40
0.2
 40
0.2
 40
0.4
 40
0.4
 40
0.4
 40
0.4
 40
0.6
 40
0.6
 40
0.6
 40
0.6
 40
1.0
 40
1.0
 40
1.0
 40
1.0
 10
202.8534
 20
134.0201
 30
0.0
 10
202.8534
 20
134.8209
 30
0.0
 10
203.5026
 20
135.4701
 30
0.0
 10
204.3034
 20
135.4701
 30
0.0
 10
204.3034
 20
135.4701
 30
0.0
 10
205.1042
 20
135.4701
 30
0.0
 10
205.7534
 20
134.8209
 30
0.0
 10
205.7534
 20
134.0201
 30
0.0
 10
205.7534
 20
134.0201
 30
0.0
 10
205.7534
 20
133.2193
 30
0.0
 10
205.1042
 20
132.5701
 30
0.0
 10
204.3034
 20
132.5701
 30
0.0
 10
204.3034
 20
132.5701
 30
0.0
 10
203.5026
 20
132.5701
 30
0.0
 10
202.8534
 20
133.2193
 30
0.0
 10
202.8534
 20
134.0201
 30
0.0
  0
SPLINE
  5
1A6
330
1F
100
AcDbEntity
  8
Layer 1
370
    15
100
AcDbSpline
210
0.0
220
0.0
230
1.0
 70
    11
 71
     3
 72
    20
 73
    16
 74
     0
 42
0.0000000001
 43
0.0000000001
 12
1.0
 22
0.0
 32
0.0
 13
1.0
 23
0.0
 33
0.0
 40
0.0
 40
0.0
 40
0.0
 40
0.0
 40
0.2
 40
0.2
 40
0.2
 40
0.2
 40
0.4
 40
0.4
 40
0.4
 40
0.4
 40
0.6
 40
0.6
 40
0.6
 40
0.6
 40
1.0
 40
1.0
 40
1.0
 40
1.0
 10
231.8534
 20
134.0201
 30
0.0
 10
231.8534
 20
134.8209
 30
0.0
 10
232.5026
 20
135.4701
 30
0.0
 10
233.3034
 20
135.4701
 30
0.0
 10
233.3034
 20
135.4701
 30
0.0
 10
234.1042
 20
135.4701
 30
0.0
 10
234.7534
 20
134.8209
 30
0.0
 10
234.7534
 20
134.0201
 30
0.0
 10
234.7534
 20
134.0201
 30
0.0
 10
234.7534
 20
133.2193
 30
0.0
 10
234.1042
 20
132.5701
 30
0.0
 10
233.3034
 20
132.5701
 30
0.0
 10
233.3034
 20
132.5701
 30
0.0
 10
232.5026
 20
132.5701
 30
0.0
 10
231.8534
 20
133.2193
 30
0.0
 10
231.8534
 20
134.0201
 30
0.0
  0
SPLINE
  5
1A7
330
1F
100
AcDbEntity
  8
Layer 1
370
    15
100
AcDbSpline
210
0.0
220
0.0
230
1.0
 70
    11
 71
     3
 72
    20
 73
    16
 74
     0
 42
0.0000000001
 43
0.0000000001
 12
1.0
 22
0.0
 32
0.0
 13
1.0
 23
0.0
 33
0.0
 40
0.0
 40
0.0
 40
0.0
 40
0.0
 40
0.2
 40
0.2
 40
0.2
 40
0.2
 40
0.4
 40
0.4
 40
0.4
 40
0.4
 40
0.6
 40
0.6
 40
0.6
 40
0.6
 40
1.0
 40
1.0
 40
1.0
 40
1.0
 10
260.8534
 20
134.0201
 30
0.0
 10
260.8534
 20
134.8209
 30
0.0
 10
261.5026
 20
135.4701
 30
0.0
 10
262.3034
 20
135.4701
 30
0.0
 10
262.3034
 20
135.4701
 30
0.0
 10
263.1042
 20
135.4701
 30
0.0
 10
263.7534
 20
134.8209
 30
0.0
 10
263.7534
 20
134.0201
 30
0.0
 10
263.7534
 20
134.0201
 30
0.0
 10
263.7534
 20
133.2193
 30
0.0
 10
263.1042
 20
132.5701
 30
0.0
 10
262.3034
 20
132.5701
 30
0.0
 10
262.3034
 20
132.5701
 30
0.0
 10
261.5026
 20
132.5701
 30
0.0
 10
260.8534
 20
133.2193
 30
0.0
 10
260.8534
 20
134.0201
 30
0.0
  0
SPLINE
  5
1A8
330
1F
100
AcDbEntity
  8
Layer 1
370
    15
100
AcDbSpline
210
0.0
220
0.0
230
1.0
 70
    11
 71
     3
 72
    20
 73
    16
 74
     0
 42
0.0000000001
 43
0.0000000001
 12
1.0
 22
0.0
 32
0.0
 13
1.0
 23
0.0
 33
0.0
 40
0.0
 40
0.0
 40
0.0
 40
0.0
 40
0.2
 40
0.2
 40
0.2
 40
0.2
 40
0.4
 40
0.4
 40
0.4
 40
0.4
 40
0.6
 40
0.6
 40
0.6
 40
0.6
 40
1.0
 40
1.0
 40
1.0
 40
1.0
 10
246.3534
 20
52.0201
 30
0.0
 10
246.3534
 20
52.8209
 30
0.0
 10
247.0026
 20
53.4701
 30
0.0
 10
247.8034
 20
53.4701
 30
0.0
 10
247.8034
 20
53.4701
 30
0.0
 10
248.6042
 20
53.4701
 30
0.0
 10
249.2534
 20
52.8209
 30
0.0
 10
249.2534
 20
52.0201
 30
0.0
 10
249.2534
 20
52.0201
 30
0.0
 10
249.2534
 20
51.2193
 30
0.0
 10
248.6042
 20
50.5701
 30
0.0
 10
247.8034
 20
50.5701
 30
0.0
 10
247.8034
 20
50.5701
 30
0.0
 10
247.0026
 20
50.5701
 30
0.0
 10
246.3534
 20
51.2193
 30
0.0
 10
246.3534
 20
52.0201
 30
0.0
  0
SPLINE
  5
1A9
330
1F
100
AcDbEntity
  8
Layer 1
370
    15
100
AcDbSpline
210
0.0
220
0.0
230
1.0
 70
     8
 71
     3
 72
    12
 73
     8
 74
     0
 42
0.0000000001
 43
0.0000000001
 12
1.0
 22
0.0
 32
0.0
 13
1.0
 23
0.0
 33
0.0
 40
0.0
 40
0.0
 40
0.0
 40
0.0
 40
0.3333333333333333
 40
0.3333333333333333
 40
0.3333333333333333
 40
0.3333333333333333
 40
1.0
 40
1.0
 40
1.0
 40
1.0
 10
276.0534
 20
49.0201
 30
0.0
 10
274.3965
 20
49.0201
 30
0.0
 10
273.0534
 20
50.3632
 30
0.0
 10
273.0534
 20
52.0201
 30
0.0
 10
273.0534
 20
52.0201
 30
0.0
 10
273.0534
 20
53.6769
 30
0.0
 10
274.3965
 20
55.0201
 30
0.0
 10
276.0534
 20
55.0201
 30
0.0
  0
SPLINE
  5
1AA
330
1F
100
AcDbEntity
  8
Layer 1
370
    15
100
AcDbSpline
210
0.0
220
0.0
230
1.0
 70
    24
 71
     3
 72
     8
 73
     4
 74
     0
 42
0.0000000001
 43
0.0000000001
 12
1.0
 22
0.0
 32
0.0
 13
1.0
 23
0.0
 33
0.0
 40
0.0
 40
0.0
 40
0.0
 40
0.0
 40
1.0
 40
1.0
 40
1.0
 40
1.0
 10
289.0534
 20
49.0201
 30
0.0
 10
289.0534
 20
49.0201
 30
0.0
 10
276.0534
 20
49.0201
 30
0.0
 10
276.0534
 20
49.0201
 30
0.0
  0
SPLINE
  5
1AB
330
1F
100
AcDbEntity
  8
Layer 1
370
    15
100
AcDbSpline
210
0.0
220
0.0
230
1.0
 70
    24
 71
     3
 72
     8
 73
     4
 74
     0
 42
0.0000000001
 43
0.0000000001
 12
1.0
 22
0.0
 32
0.0
 13
1.0
 23
0.0
 33
0.0
 40
0.0
 40
0.0
 40
0.0
 40
0.0
 40
1.0
 40
1.0
 40
1.0
 40
1.0
 10
289.0534
 20
45.0202
 30
0.0
 10
289.0534
 20
45.0202
 30
0.0
 10
289.0534
 20
49.0201
 30
0.0
 10
289.0534
 20
49.0201
 30
0.0
  0
SPLINE
  5
1AC
330
1F
100
AcDbEntity
  8
Layer 1
370
    15
100
AcDbSpline
210
0.0
220
0.0
230
1.0
 70
    24
 71
     3
 72
     8
 73
     4
 74
     0
 42
0.0000000001
 43
0.0000000001
 12
1.0
 22
0.0
 32
0.0
 13
1.0
 23
0.0
 33
0.0
 40
0.0
 40
0.0
 40
0.0
 40
0.0
 40
1.0
 40
1.0
 40
1.0
 40
1.0
 10
289.0534
 20
45.0202
 30
0.0
 10
289.0534
 20
45.0202
 30
0.0
 10
270.0509
 20
45.0202
 30
0.0
 10
270.0509
 20
45.0202
 30
0.0
  0
SPLINE
  5
1AD
330
1F
100
AcDbEntity
  8
Layer 1
370
    15
100
AcDbSpline
210
0.0
220
0.0
230
1.0
 70
     8
 71
     3
 72
     8
 73
     4
 74
     0
 42
0.0000000001
 43
0.0000000001
 12
1.0
 22
0.0
 32
0.0
 13
1.0
 23
0.0
 33
0.0
 40
0.0
 40
0.0
 40
0.0
 40
0.0
 40
1.0
 40
1.0
 40
1.0
 40
1.0
 10
270.0509
 20
45.0202
 30
0.0
 10
269.3863
 20
45.0202
 30
0.0
 10
268.7221
 20
45.0533
 30
0.0
 10
268.0609
 20
45.1194
 30
0.0
  0
SPLINE
  5
1AE
330
1F
100
AcDbEntity
  8
Layer 1
370
    15
100
AcDbSpline
210
0.0
220
0.0
230
1.0
 70
    24
 71
     3
 72
     8
 73
     4
 74
     0
 42
0.0000000001
 43
0.0000000001
 12
1.0
 22
0.0
 32
0.0
 13
1.0
 23
0.0
 33
0.0
 40
0.0
 40
0.0
 40
0.0
 40
0.0
 40
1.0
 40
1.0
 40
1.0
 40
1.0
 10
268.0609
 20
45.1194
 30
0.0
 10
268.0609
 20
45.1194
 30
0.0
 10
240.0459
 20
47.9208
 30
0.0
 10
240.0459
 20
47.9208
 30
0.0
  0
SPLINE
  5
1AF
330
1F
100
AcDbEntity
  8
Layer 1
370
    15
100
AcDbSpline
210
0.0
220
0.0
230
1.0
 70
     8
 71
     3
 72
     8
 73
     4
 74
     0
 42
0.0000000001
 43
0.0000000001
 12
1.0
 22
0.0
 32
0.0
 13
1.0
 23
0.0
 33
0.0
 40
0.0
 40
0.0
 40
0.0
 40
0.0
 40
1.0
 40
1.0
 40
1.0
 40
1.0
 10
238.0559
 20
48.0201
 30
0.0
 10
238.7205
 20
48.0201
 30
0.0
 10
239.3847
 20
47.987
 30
0.0
 10
240.0459
 20
47.9208
 30
0.0
  0
SPLINE
  5
1B0
330
1F
100
AcDbEntity
  8
Layer 1
370
    15
100
AcDbSpline
210
0.0
220
0.0
230
1.0
 70
    24
 71
     3
 72
     8
 73
     4
 74
     0
 42
0.0000000001
 43
0.0000000001
 12
1.0
 22
0.0
 32
0.0
 13
1.0
 23
0.0
 33
0.0
 40
0.0
 40
0.0
 40
0.0
 40
0.0
 40
1.0
 40
1.0
 40
1.0
 40
1.0
 10
238.0559
 20
48.0201
 30
0.0
 10
238.0559
 20
48.0201
 30
0.0
 10
-105.3674
 20
48.0201
 30
0.0
 10
-105.3674
 20
48.0201
 30
0.0
  0
SPLINE
  5
1B1
330
1F
100
AcDbEntity
  8
Layer 1
370
    15
100
AcDbSpline
210
0.0
220
0.0
230
1.0
 70
     8
 71
     3
 72
     8
 73
     4
 74
     0
 42
0.0000000001
 43
0.0000000001
 12
1.0
 22
0.0
 32
0.0
 13
1.0
 23
0.0
 33
0.0
 40
0.0
 40
0.0
 40
0.0
 40
0.0
 40
1.0
 40
1.0
 40
1.0
 40
1.0
 10
-105.3674
 20
48.0201
 30
0.0
 10
-106.4186
 20
48.0201
 30
0.0
 10
-107.4681
 20
48.103
 30
0.0
 10
-108.5062
 20
48.2679
 30
0.0
  0
SPLINE
  5
1B2
330
1F
100
AcDbEntity
  8
Layer 1
370
    15
100
AcDbSpline
210
0.0
220
0.0
230
1.0
 70
    24
 71
     3
 72
     8
 73
     4
 74
     0
 42
0.0000000001
 43
0.0000000001
 12
1.0
 22
0.0
 32
0.0
 13
1.0
 23
0.0
 33
0.0
 40
0.0
 40
0.0
 40
0.0
 40
0.0
 40
1.0
 40
1.0
 40
1.0
 40
1.0
 10
-108.5062
 20
48.2679
 30
0.0
 10
-108.5062
 20
48.2679
 30
0.0
 10
-205.2605
 20
63.643
 30
0.0
 10
-205.2605
 20
63.643
 30
0.0
  0
SPLINE
  5
1B3
330
1F
100
AcDbEntity
  8
Layer 1
370
    15
100
AcDbSpline
210
0.0
220
0.0
230
1.0
 70
     8
 71
     3
 72
     8
 73
     4
 74
     0
 42
0.0000000001
 43
0.0000000001
 12
1.0
 22
0.0
 32
0.0
 13
1.0
 23
0.0
 33
0.0
 40
0.0
 40
0.0
 40
0.0
 40
0.0
 40
1.0
 40
1.0
 40
1.0
 40
1.0
 10
-205.2605
 20
63.643
 30
0.0
 10
-206.2317
 20
63.7973
 30
0.0
 10
-206.9466
 20
64.6348
 30
0.0
 10
-206.9466
 20
65.6182
 30
0.0
  0
SPLINE
  5
1B4
330
1F
100
AcDbEntity
  8
Layer 1
370
    15
100
AcDbSpline
210
0.0
220
0.0
230
1.0
 70
    24
 71
     3
 72
     8
 73
     4
 74
     0
 42
0.0000000001
 43
0.0000000001
 12
1.0
 22
0.0
 32
0.0
 13
1.0
 23
0.0
 33
0.0
 40
0.0
 40
0.0
 40
0.0
 40
0.0
 40
1.0
 40
1.0
 40
1.0
 40
1.0
 10
-206.9466
 20
67.0201
 30
0.0
 10
-206.9466
 20
67.0201
 30
0.0
 10
-206.9466
 20
65.6182
 30
0.0
 10
-206.9466
 20
65.6182
 30
0.0
  0
SPLINE
  5
1B5
330
1F
100
AcDbEntity
  8
Layer 1
370
    15
100
AcDbSpline
210
0.0
220
0.0
230
1.0
 70
    24
 71
     3
 72
     8
 73
     4
 74
     0
 42
0.0000000001
 43
0.0000000001
 12
1.0
 22
0.0
 32
0.0
 13
1.0
 23
0.0
 33
0.0
 40
0.0
 40
0.0
 40
0.0
 40
0.0
 40
1.0
 40
1.0
 40
1.0
 40
1.0
 10
-204.2466
 20
67.0201
 30
0.0
 10
-204.2466
 20
67.0201
 30
0.0
 10
-206.9466
 20
67.0201
 30
0.0
 10
-206.9466
 20
67.0201
 30
0.0
  0
SPLINE
  5
1B6
330
1F
100
AcDbEntity
  8
Layer 1
370
    15
100
AcDbSpline
210
0.0
220
0.0
230
1.0
 70
    24
 71
     3
 72
     8
 73
     4
 74
     0
 42
0.0000000001
 43
0.0000000001
 12
1.0
 22
0.0
 32
0.0
 13
1.0
 23
0.0
 33
0.0
 40
0.0
 40
0.0
 40
0.0
 40
0.0
 40
1.0
 40
1.0
 40
1.0
 40
1.0
 10
-204.2466
 20
91.5701
 30
0.0
 10
-204.2466
 20
91.5701
 30
0.0
 10
-204.2466
 20
67.0201
 30
0.0
 10
-204.2466
 20
67.0201
 30
0.0
  0
SPLINE
  5
1B7
330
1F
100
AcDbEntity
  8
Layer 1
370
    15
100
AcDbSpline
210
0.0
220
0.0
230
1.0
 70
    24
 71
     3
 72
     8
 73
     4
 74
     0
 42
0.0000000001
 43
0.0000000001
 12
1.0
 22
0.0
 32
0.0
 13
1.0
 23
0.0
 33
0.0
 40
0.0
 40
0.0
 40
0.0
 40
0.0
 40
1.0
 40
1.0
 40
1.0
 40
1.0
 10
42.7534
 20
91.5701
 30
0.0
 10
42.7534
 20
91.5701
 30
0.0
 10
-204.2466
 20
91.5701
 30
0.0
 10
-204.2466
 20
91.5701
 30
0.0
  0
SPLINE
  5
1B8
330
1F
100
AcDbEntity
  8
Layer 1
370
    15
100
AcDbSpline
210
0.0
220
0.0
230
1.0
 70
    24
 71
     3
 72
     8
 73
     4
 74
     0
 42
0.0000000001
 43
0.0000000001
 12
1.0
 22
0.0
 32
0.0
 13
1.0
 23
0.0
 33
0.0
 40
0.0
 40
0.0
 40
0.0
 40
0.0
 40
1.0
 40
1.0
 40
1.0
 40
1.0
 10
42.7534
 20
94.4701
 30
0.0
 10
42.7534
 20
94.4701
 30
0.0
 10
42.7534
 20
91.5701
 30
0.0
 10
42.7534
 20
91.5701
 30
0.0
  0
SPLINE
  5
1B9
330
1F
100
AcDbEntity
  8
Layer 1
370
    15
100
AcDbSpline
210
0.0
220
0.0
230
1.0
 70
    24
 71
     3
 72
     8
 73
     4
 74
     0
 42
0.0000000001
 43
0.0000000001
 12
1.0
 22
0.0
 32
0.0
 13
1.0
 23
0.0
 33
0.0
 40
0.0
 40
0.0
 40
0.0
 40
0.0
 40
1.0
 40
1.0
 40
1.0
 40
1.0
 10
42.7534
 20
94.4701
 30
0.0
 10
42.7534
 20
94.4701
 30
0.0
 10
-204.2466
 20
94.4701
 30
0.0
 10
-204.2466
 20
94.4701
 30
0.0
  0
SPLINE
  5
1BA
330
1F
100
AcDbEntity
  8
Layer 1
370
    15
100
AcDbSpline
210
0.0
220
0.0
230
1.0
 70
    24
 71
     3
 72
     8
 73
     4
 74
     0
 42
0.0000000001
 43
0.0000000001
 12
1.0
 22
0.0
 32
0.0
 13
1.0
 23
0.0
 33
0.0
 40
0.0
 40
0.0
 40
0.0
 40
0.0
 40
1.0
 40
1.0
 40
1.0
 40
1.0
 10
-204.2466
 20
119.0201
 30
0.0
 10
-204.2466
 20
119.0201
 30
0.0
 10
-204.2466
 20
94.4701
 30
0.0
 10
-204.2466
 20
94.4701
 30
0.0
  0
SPLINE
  5
1BB
330
1F
100
AcDbEntity
  8
Layer 1
370
    15
100
AcDbSpline
210
0.0
220
0.0
230
1.0
 70
    24
 71
     3
 72
     8
 73
     4
 74
     0
 42
0.0000000001
 43
0.0000000001
 12
1.0
 22
0.0
 32
0.0
 13
1.0
 23
0.0
 33
0.0
 40
0.0
 40
0.0
 40
0.0
 40
0.0
 40
1.0
 40
1.0
 40
1.0
 40
1.0
 10
-206.9466
 20
119.0201
 30
0.0
 10
-206.9466
 20
119.0201
 30
0.0
 10
-204.2466
 20
119.0201
 30
0.0
 10
-204.2466
 20
119.0201
 30
0.0
  0
SPLINE
  5
1BC
330
1F
100
AcDbEntity
  8
Layer 1
370
    15
100
AcDbSpline
210
0.0
220
0.0
230
1.0
 70
    24
 71
     3
 72
     8
 73
     4
 74
     0
 42
0.0000000001
 43
0.0000000001
 12
1.0
 22
0.0
 32
0.0
 13
1.0
 23
0.0
 33
0.0
 40
0.0
 40
0.0
 40
0.0
 40
0.0
 40
1.0
 40
1.0
 40
1.0
 40
1.0
 10
-206.9466
 20
120.422
 30
0.0
 10
-206.9466
 20
120.422
 30
0.0
 10
-206.9466
 20
119.0201
 30
0.0
 10
-206.9466
 20
119.0201
 30
0.0
  0
SPLINE
  5
1BD
330
1F
100
AcDbEntity
  8
Layer 1
370
    15
100
AcDbSpline
210
0.0
220
0.0
230
1.0
 70
     8
 71
     3
 72
     8
 73
     4
 74
     0
 42
0.0000000001
 43
0.0000000001
 12
1.0
 22
0.0
 32
0.0
 13
1.0
 23
0.0
 33
0.0
 40
0.0
 40
0.0
 40
0.0
 40
0.0
 40
1.0
 40
1.0
 40
1.0
 40
1.0
 10
-206.9466
 20
120.422
 30
0.0
 10
-206.9466
 20
121.4054
 30
0.0
 10
-206.2317
 20
122.2429
 30
0.0
 10
-205.2605
 20
122.3972
 30
0.0
  0
SPLINE
  5
1BE
330
1F
100
AcDbEntity
  8
Layer 1
370
    15
100
AcDbSpline
210
0.0
220
0.0
230
1.0
 70
    24
 71
     3
 72
     8
 73
     4
 74
     0
 42
0.0000000001
 43
0.0000000001
 12
1.0
 22
0.0
 32
0.0
 13
1.0
 23
0.0
 33
0.0
 40
0.0
 40
0.0
 40
0.0
 40
0.0
 40
1.0
 40
1.0
 40
1.0
 40
1.0
 10
-108.5062
 20
137.7723
 30
0.0
 10
-108.5062
 20
137.7723
 30
0.0
 10
-205.2605
 20
122.3972
 30
0.0
 10
-205.2605
 20
122.3972
 30
0.0
  0
SPLINE
  5
1BF
330
1F
100
AcDbEntity
  8
Layer 1
370
    15
100
AcDbSpline
210
0.0
220
0.0
230
1.0
 70
     8
 71
     3
 72
     8
 73
     4
 74
     0
 42
0.0000000001
 43
0.0000000001
 12
1.0
 22
0.0
 32
0.0
 13
1.0
 23
0.0
 33
0.0
 40
0.0
 40
0.0
 40
0.0
 40
0.0
 40
1.0
 40
1.0
 40
1.0
 40
1.0
 10
-108.5062
 20
137.7723
 30
0.0
 10
-107.4681
 20
137.9372
 30
0.0
 10
-106.4186
 20
138.0201
 30
0.0
 10
-105.3674
 20
138.0201
 30
0.0
  0
SPLINE
  5
1C0
330
1F
100
AcDbEntity
  8
Layer 1
370
    15
100
AcDbSpline
210
0.0
220
0.0
230
1.0
 70
    24
 71
     3
 72
     8
 73
     4
 74
     0
 42
0.0000000001
 43
0.0000000001
 12
1.0
 22
0.0
 32
0.0
 13
1.0
 23
0.0
 33
0.0
 40
0.0
 40
0.0
 40
0.0
 40
0.0
 40
1.0
 40
1.0
 40
1.0
 40
1.0
 10
238.0559
 20
138.0201
 30
0.0
 10
238.0559
 20
138.0201
 30
0.0
 10
-105.3674
 20
138.0201
 30
0.0
 10
-105.3674
 20
138.0201
 30
0.0
  0
SPLINE
  5
1C1
330
1F
100
AcDbEntity
  8
Layer 1
370
    15
100
AcDbSpline
210
0.0
220
0.0
230
1.0
 70
     8
 71
     3
 72
     8
 73
     4
 74
     0
 42
0.0000000001
 43
0.0000000001
 12
1.0
 22
0.0
 32
0.0
 13
1.0
 23
0.0
 33
0.0
 40
0.0
 40
0.0
 40
0.0
 40
0.0
 40
1.0
 40
1.0
 40
1.0
 40
1.0
 10
240.0459
 20
138.1194
 30
0.0
 10
239.3847
 20
138.0532
 30
0.0
 10
238.7205
 20
138.0201
 30
0.0
 10
238.0559
 20
138.0201
 30
0.0
  0
SPLINE
  5
1C2
330
1F
100
AcDbEntity
  8
Layer 1
370
    15
100
AcDbSpline
210
0.0
220
0.0
230
1.0
 70
    24
 71
     3
 72
     8
 73
     4
 74
     0
 42
0.0000000001
 43
0.0000000001
 12
1.0
 22
0.0
 32
0.0
 13
1.0
 23
0.0
 33
0.0
 40
0.0
 40
0.0
 40
0.0
 40
0.0
 40
1.0
 40
1.0
 40
1.0
 40
1.0
 10
268.0609
 20
140.9208
 30
0.0
 10
268.0609
 20
140.9208
 30
0.0
 10
240.0459
 20
138.1194
 30
0.0
 10
240.0459
 20
138.1194
 30
0.0
  0
SPLINE
  5
1C3
330
1F
100
AcDbEntity
  8
Layer 1
370
    15
100
AcDbSpline
210
0.0
220
0.0
230
1.0
 70
     8
 71
     3
 72
     8
 73
     4
 74
     0
 42
0.0000000001
 43
0.0000000001
 12
1.0
 22
0.0
 32
0.0
 13
1.0
 23
0.0
 33
0.0
 40
0.0
 40
0.0
 40
0.0
 40
0.0
 40
1.0
 40
1.0
 40
1.0
 40
1.0
 10
268.0609
 20
140.9208
 30
0.0
 10
268.7221
 20
140.9869
 30
0.0
 10
269.3863
 20
141.02
 30
0.0
 10
270.0509
 20
141.02
 30
0.0
  0
SPLINE
  5
1C4
330
1F
100
AcDbEntity
  8
Layer 1
370
    15
100
AcDbSpline
210
0.0
220
0.0
230
1.0
 70
    24
 71
     3
 72
     8
 73
     4
 74
     0
 42
0.0000000001
 43
0.0000000001
 12
1.0
 22
0.0
 32
0.0
 13
1.0
 23
0.0
 33
0.0
 40
0.0
 40
0.0
 40
0.0
 40
0.0
 40
1.0
 40
1.0
 40
1.0
 40
1.0
 10
289.0534
 20
141.02
 30
0.0
 10
289.0534
 20
141.02
 30
0.0
 10
270.0509
 20
141.02
 30
0.0
 10
270.0509
 20
141.02
 30
0.0
  0
SPLINE
  5
1C5
330
1F
100
AcDbEntity
  8
Layer 1
370
    15
100
AcDbSpline
210
0.0
220
0.0
230
1.0
 70
    24
 71
     3
 72
     8
 73
     4
 74
     0
 42
0.0000000001
 43
0.0000000001
 12
1.0
 22
0.0
 32
0.0
 13
1.0
 23
0.0
 33
0.0
 40
0.0
 40
0.0
 40
0.0
 40
0.0
 40
1.0
 40
1.0
 40
1.0
 40
1.0
 10
289.0534
 20
55.0201
 30
0.0
 10
289.0534
 20
55.0201
 30
0.0
 10
289.0534
 20
141.02
 30
0.0
 10
289.0534
 20
141.02
 30
0.0
  0
SPLINE
  5
1C6
330
1F
100
AcDbEntity
  8
Layer 1
370
    15
100
AcDbSpline
210
0.0
220
0.0
230
1.0
 70
    24
 71
     3
 72
     8
 73
     4
 74
     0
 42
0.0000000001
 43
0.0000000001
 12
1.0
 22
0.0
 32
0.0
 13
1.0
 23
0.0
 33
0.0
 40
0.0
 40
0.0
 40
0.0
 40
0.0
 40
1.0
 40
1.0
 40
1.0
 40
1.0
 10
289.0534
 20
55.0201
 30
0.0
 10
289.0534
 20
55.0201
 30
0.0
 10
276.0534
 20
55.0201
 30
0.0
 10
276.0534
 20
55.0201
 30
0.0
  0
SPLINE
  5
1C7
330
1F
100
AcDbEntity
  8
Layer 1
370
    15
100
AcDbSpline
210
0.0
220
0.0
230
1.0
 70
    24
 71
     3
 72
     8
 73
     4
 74
     0
 42
0.0000000001
 43
0.0000000001
 12
1.0
 22
0.0
 32
0.0
 13
1.0
 23
0.0
 33
0.0
 40
0.0
 40
0.0
 40
0.0
 40
0.0
 40
1.0
 40
1.0
 40
1.0
 40
1.0
 10
139.0534
 20
67.0201
 30
0.0
 10
139.0534
 20
67.0201
 30
0.0
 10
136.0534
 20
67.0201
 30
0.0
 10
136.0534
 20
67.0201
 30
0.0
  0
SPLINE
  5
1C8
330
1F
100
AcDbEntity
  8
Layer 1
370
    15
100
AcDbSpline
210
0.0
220
0.0
230
1.0
 70
    24
 71
     3
 72
     8
 73
     4
 74
     0
 42
0.0000000001
 43
0.0000000001
 12
1.0
 22
0.0
 32
0.0
 13
1.0
 23
0.0
 33
0.0
 40
0.0
 40
0.0
 40
0.0
 40
0.0
 40
1.0
 40
1.0
 40
1.0
 40
1.0
 10
139.0534
 20
67.0201
 30
0.0
 10
139.0534
 20
67.0201
 30
0.0
 10
139.0534
 20
119.0201
 30
0.0
 10
139.0534
 20
119.0201
 30
0.0
  0
SPLINE
  5
1C9
330
1F
100
AcDbEntity
  8
Layer 1
370
    15
100
AcDbSpline
210
0.0
220
0.0
230
1.0
 70
    24
 71
     3
 72
     8
 73
     4
 74
     0
 42
0.0000000001
 43
0.0000000001
 12
1.0
 22
0.0
 32
0.0
 13
1.0
 23
0.0
 33
0.0
 40
0.0
 40
0.0
 40
0.0
 40
0.0
 40
1.0
 40
1.0
 40
1.0
 40
1.0
 10
139.0534
 20
119.0201
 30
0.0
 10
139.0534
 20
119.0201
 30
0.0
 10
136.0534
 20
119.0201
 30
0.0
 10
136.0534
 20
119.0201
 30
0.0
  0
SPLINE
  5
1CA
330
1F
100
AcDbEntity
  8
Layer 1
370
    15
100
AcDbSpline
210
0.0
220
0.0
230
1.0
 70
    24
 71
     3
 72
     8
 73
     4
 74
     0
 42
0.0000000001
 43
0.0000000001
 12
1.0
 22
0.0
 32
0.0
 13
1.0
 23
0.0
 33
0.0
 40
0.0
 40
0.0
 40
0.0
 40
0.0
 40
1.0
 40
1.0
 40
1.0
 40
1.0
 10
136.0534
 20
119.0201
 30
0.0
 10
136.0534
 20
119.0201
 30
0.0
 10
136.0534
 20
67.0201
 30
0.0
 10
136.0534
 20
67.0201
 30
0.0
  0
SPLINE
  5
1CB
330
1F
100
AcDbEntity
  8
Layer 1
370
    15
100
AcDbSpline
210
0.0
220
0.0
230
1.0
 70
    11
 71
     3
 72
    20
 73
    16
 74
     0
 42
0.0000000001
 43
0.0000000001
 12
1.0
 22
0.0
 32
0.0
 13
1.0
 23
0.0
 33
0.0
 40
0.0
 40
0.0
 40
0.0
 40
0.0
 40
0.2
 40
0.2
 40
0.2
 40
0.2
 40
0.4
 40
0.4
 40
0.4
 40
0.4
 40
0.6
 40
0.6
 40
0.6
 40
0.6
 40
1.0
 40
1.0
 40
1.0
 40
1.0
 10
-188.6466
 20
-123.9291
 30
0.0
 10
-188.6466
 20
-123.1283
 30
0.0
 10
-187.9974
 20
-122.4791
 30
0.0
 10
-187.1966
 20
-122.4791
 30
0.0
 10
-187.1966
 20
-122.4791
 30
0.0
 10
-186.3958
 20
-122.4791
 30
0.0
 10
-185.7466
 20
-123.1283
 30
0.0
 10
-185.7466
 20
-123.9291
 30
0.0
 10
-185.7466
 20
-123.9291
 30
0.0
 10
-185.7466
 20
-124.7299
 30
0.0
 10
-186.3958
 20
-125.3791
 30
0.0
 10
-187.1966
 20
-125.3791
 30
0.0
 10
-187.1966
 20
-125.3791
 30
0.0
 10
-187.9974
 20
-125.3791
 30
0.0
 10
-188.6466
 20
-124.7299
 30
0.0
 10
-188.6466
 20
-123.9291
 30
0.0
  0
SPLINE
  5
1CC
330
1F
100
AcDbEntity
  8
Layer 1
370
    15
100
AcDbSpline
210
0.0
220
0.0
230
1.0
 70
    11
 71
     3
 72
    20
 73
    16
 74
     0
 42
0.0000000001
 43
0.0000000001
 12
1.0
 22
0.0
 32
0.0
 13
1.0
 23
0.0
 33
0.0
 40
0.0
 40
0.0
 40
0.0
 40
0.0
 40
0.2
 40
0.2
 40
0.2
 40
0.2
 40
0.4
 40
0.4
 40
0.4
 40
0.4
 40
0.6
 40
0.6
 40
0.6
 40
0.6
 40
1.0
 40
1.0
 40
1.0
 40
1.0
 10
-203.1466
 20
-68.1792
 30
0.0
 10
-203.1466
 20
-67.3784
 30
0.0
 10
-202.4974
 20
-66.7292
 30
0.0
 10
-201.6966
 20
-66.7292
 30
0.0
 10
-201.6966
 20
-66.7292
 30
0.0
 10
-200.8958
 20
-66.7292
 30
0.0
 10
-200.2466
 20
-67.3784
 30
0.0
 10
-200.2466
 20
-68.1792
 30
0.0
 10
-200.2466
 20
-68.1792
 30
0.0
 10
-200.2466
 20
-68.98
 30
0.0
 10
-200.8958
 20
-69.6292
 30
0.0
 10
-201.6966
 20
-69.6292
 30
0.0
 10
-201.6966
 20
-69.6292
 30
0.0
 10
-202.4974
 20
-69.6292
 30
0.0
 10
-203.1466
 20
-68.9801
 30
0.0
 10
-203.1466
 20
-68.1792
 30
0.0
  0
SPLINE
  5
1CD
330
1F
100
AcDbEntity
  8
Layer 1
370
    15
100
AcDbSpline
210
0.0
220
0.0
230
1.0
 70
    11
 71
     3
 72
    20
 73
    16
 74
     0
 42
0.0000000001
 43
0.0000000001
 12
1.0
 22
0.0
 32
0.0
 13
1.0
 23
0.0
 33
0.0
 40
0.0
 40
0.0
 40
0.0
 40
0.0
 40
0.2
 40
0.2
 40
0.2
 40
0.2
 40
0.4
 40
0.4
 40
0.4
 40
0.4
 40
0.6
 40
0.6
 40
0.6
 40
0.6
 40
1.0
 40
1.0
 40
1.0
 40
1.0
 10
-174.1466
 20
-63.8294
 30
0.0
 10
-174.1466
 20
-63.0286
 30
0.0
 10
-173.4974
 20
-62.3794
 30
0.0
 10
-172.6966
 20
-62.3794
 30
0.0
 10
-172.6966
 20
-62.3794
 30
0.0
 10
-171.8958
 20
-62.3794
 30
0.0
 10
-171.2466
 20
-63.0286
 30
0.0
 10
-171.2466
 20
-63.8294
 30
0.0
 10
-171.2466
 20
-63.8294
 30
0.0
 10
-171.2466
 20
-64.6302
 30
0.0
 10
-171.8958
 20
-65.2794
 30
0.0
 10
-172.6966
 20
-65.2794
 30
0.0
 10
-172.6966
 20
-65.2794
 30
0.0
 10
-173.4974
 20
-65.2794
 30
0.0
 10
-174.1466
 20
-64.6302
 30
0.0
 10
-174.1466
 20
-63.8294
 30
0.0
  0
SPLINE
  5
1CE
330
1F
100
AcDbEntity
  8
Layer 1
370
    15
100
AcDbSpline
210
0.0
220
0.0
230
1.0
 70
    11
 71
     3
 72
    20
 73
    16
 74
     0
 42
0.0000000001
 43
0.0000000001
 12
1.0
 22
0.0
 32
0.0
 13
1.0
 23
0.0
 33
0.0
 40
0.0
 40
0.0
 40
0.0
 40
0.0
 40
0.2
 40
0.2
 40
0.2
 40
0.2
 40
0.4
 40
0.4
 40
0.4
 40
0.4
 40
0.6
 40
0.6
 40
0.6
 40
0.6
 40
1.0
 40
1.0
 40
1.0
 40
1.0
 10
-159.6466
 20
-128.2789
 30
0.0
 10
-159.6466
 20
-127.4781
 30
0.0
 10
-158.9974
 20
-126.8289
 30
0.0
 10
-158.1966
 20
-126.8289
 30
0.0
 10
-158.1966
 20
-126.8289
 30
0.0
 10
-157.3958
 20
-126.8289
 30
0.0
 10
-156.7466
 20
-127.4781
 30
0.0
 10
-156.7466
 20
-128.2789
 30
0.0
 10
-156.7466
 20
-128.2789
 30
0.0
 10
-156.7466
 20
-129.0797
 30
0.0
 10
-157.3958
 20
-129.7289
 30
0.0
 10
-158.1966
 20
-129.7289
 30
0.0
 10
-158.1966
 20
-129.7289
 30
0.0
 10
-158.9974
 20
-129.7289
 30
0.0
 10
-159.6466
 20
-129.0797
 30
0.0
 10
-159.6466
 20
-128.2789
 30
0.0
  0
SPLINE
  5
1CF
330
1F
100
AcDbEntity
  8
Layer 1
370
    15
100
AcDbSpline
210
0.0
220
0.0
230
1.0
 70
    11
 71
     3
 72
    20
 73
    16
 74
     0
 42
0.0000000001
 43
0.0000000001
 12
1.0
 22
0.0
 32
0.0
 13
1.0
 23
0.0
 33
0.0
 40
0.0
 40
0.0
 40
0.0
 40
0.0
 40
0.2
 40
0.2
 40
0.2
 40
0.2
 40
0.4
 40
0.4
 40
0.4
 40
0.4
 40
0.6
 40
0.6
 40
0.6
 40
0.6
 40
1.0
 40
1.0
 40
1.0
 40
1.0
 10
-130.6466
 20
-132.6287
 30
0.0
 10
-130.6466
 20
-131.8279
 30
0.0
 10
-129.9974
 20
-131.1787
 30
0.0
 10
-129.1966
 20
-131.1787
 30
0.0
 10
-129.1966
 20
-131.1787
 30
0.0
 10
-128.3958
 20
-131.1787
 30
0.0
 10
-127.7466
 20
-131.8279
 30
0.0
 10
-127.7466
 20
-132.6287
 30
0.0
 10
-127.7466
 20
-132.6287
 30
0.0
 10
-127.7466
 20
-133.4295
 30
0.0
 10
-128.3958
 20
-134.0787
 30
0.0
 10
-129.1966
 20
-134.0787
 30
0.0
 10
-129.1966
 20
-134.0787
 30
0.0
 10
-129.9974
 20
-134.0787
 30
0.0
 10
-130.6466
 20
-133.4295
 30
0.0
 10
-130.6466
 20
-132.6287
 30
0.0
  0
SPLINE
  5
1D0
330
1F
100
AcDbEntity
  8
Layer 1
370
    15
100
AcDbSpline
210
0.0
220
0.0
230
1.0
 70
    11
 71
     3
 72
    20
 73
    16
 74
     0
 42
0.0000000001
 43
0.0000000001
 12
1.0
 22
0.0
 32
0.0
 13
1.0
 23
0.0
 33
0.0
 40
0.0
 40
0.0
 40
0.0
 40
0.0
 40
0.2
 40
0.2
 40
0.2
 40
0.2
 40
0.4
 40
0.4
 40
0.4
 40
0.4
 40
0.6
 40
0.6
 40
0.6
 40
0.6
 40
1.0
 40
1.0
 40
1.0
 40
1.0
 10
-145.1466
 20
-59.4796
 30
0.0
 10
-145.1466
 20
-58.6788
 30
0.0
 10
-144.4974
 20
-58.0296
 30
0.0
 10
-143.6966
 20
-58.0296
 30
0.0
 10
-143.6966
 20
-58.0296
 30
0.0
 10
-142.8958
 20
-58.0296
 30
0.0
 10
-142.2466
 20
-58.6788
 30
0.0
 10
-142.2466
 20
-59.4796
 30
0.0
 10
-142.2466
 20
-59.4796
 30
0.0
 10
-142.2466
 20
-60.2804
 30
0.0
 10
-142.8958
 20
-60.9296
 30
0.0
 10
-143.6966
 20
-60.9296
 30
0.0
 10
-143.6966
 20
-60.9296
 30
0.0
 10
-144.4974
 20
-60.9296
 30
0.0
 10
-145.1466
 20
-60.2804
 30
0.0
 10
-145.1466
 20
-59.4796
 30
0.0
  0
SPLINE
  5
1D1
330
1F
100
AcDbEntity
  8
Layer 1
370
    15
100
AcDbSpline
210
0.0
220
0.0
230
1.0
 70
    11
 71
     3
 72
    20
 73
    16
 74
     0
 42
0.0000000001
 43
0.0000000001
 12
1.0
 22
0.0
 32
0.0
 13
1.0
 23
0.0
 33
0.0
 40
0.0
 40
0.0
 40
0.0
 40
0.0
 40
0.2
 40
0.2
 40
0.2
 40
0.2
 40
0.4
 40
0.4
 40
0.4
 40
0.4
 40
0.6
 40
0.6
 40
0.6
 40
0.6
 40
1.0
 40
1.0
 40
1.0
 40
1.0
 10
-116.1466
 20
-55.1298
 30
0.0
 10
-116.1466
 20
-54.329
 30
0.0
 10
-115.4974
 20
-53.6798
 30
0.0
 10
-114.6966
 20
-53.6798
 30
0.0
 10
-114.6966
 20
-53.6798
 30
0.0
 10
-113.8958
 20
-53.6798
 30
0.0
 10
-113.2466
 20
-54.329
 30
0.0
 10
-113.2466
 20
-55.1298
 30
0.0
 10
-113.2466
 20
-55.1298
 30
0.0
 10
-113.2466
 20
-55.9306
 30
0.0
 10
-113.8958
 20
-56.5798
 30
0.0
 10
-114.6966
 20
-56.5798
 30
0.0
 10
-114.6966
 20
-56.5798
 30
0.0
 10
-115.4974
 20
-56.5798
 30
0.0
 10
-116.1466
 20
-55.9306
 30
0.0
 10
-116.1466
 20
-55.1298
 30
0.0
  0
SPLINE
  5
1D2
330
1F
100
AcDbEntity
  8
Layer 1
370
    15
100
AcDbSpline
210
0.0
220
0.0
230
1.0
 70
    11
 71
     3
 72
    20
 73
    16
 74
     0
 42
0.0000000001
 43
0.0000000001
 12
1.0
 22
0.0
 32
0.0
 13
1.0
 23
0.0
 33
0.0
 40
0.0
 40
0.0
 40
0.0
 40
0.0
 40
0.2
 40
0.2
 40
0.2
 40
0.2
 40
0.4
 40
0.4
 40
0.4
 40
0.4
 40
0.6
 40
0.6
 40
0.6
 40
0.6
 40
1.0
 40
1.0
 40
1.0
 40
1.0
 10
-29.1466
 20
-53.9667
 30
0.0
 10
-29.1466
 20
-53.1659
 30
0.0
 10
-28.4974
 20
-52.5167
 30
0.0
 10
-27.6966
 20
-52.5167
 30
0.0
 10
-27.6966
 20
-52.5167
 30
0.0
 10
-26.8958
 20
-52.5167
 30
0.0
 10
-26.2466
 20
-53.1659
 30
0.0
 10
-26.2466
 20
-53.9667
 30
0.0
 10
-26.2466
 20
-53.9667
 30
0.0
 10
-26.2466
 20
-54.7675
 30
0.0
 10
-26.8958
 20
-55.4167
 30
0.0
 10
-27.6966
 20
-55.4167
 30
0.0
 10
-27.6966
 20
-55.4167
 30
0.0
 10
-28.4974
 20
-55.4167
 30
0.0
 10
-29.1466
 20
-54.7675
 30
0.0
 10
-29.1466
 20
-53.9667
 30
0.0
  0
SPLINE
  5
1D3
330
1F
100
AcDbEntity
  8
Layer 1
370
    15
100
AcDbSpline
210
0.0
220
0.0
230
1.0
 70
    11
 71
     3
 72
    20
 73
    16
 74
     0
 42
0.0000000001
 43
0.0000000001
 12
1.0
 22
0.0
 32
0.0
 13
1.0
 23
0.0
 33
0.0
 40
0.0
 40
0.0
 40
0.0
 40
0.0
 40
0.2
 40
0.2
 40
0.2
 40
0.2
 40
0.4
 40
0.4
 40
0.4
 40
0.4
 40
0.6
 40
0.6
 40
0.6
 40
0.6
 40
1.0
 40
1.0
 40
1.0
 40
1.0
 10
-58.1466
 20
-53.9667
 30
0.0
 10
-58.1466
 20
-53.1659
 30
0.0
 10
-57.4974
 20
-52.5167
 30
0.0
 10
-56.6966
 20
-52.5167
 30
0.0
 10
-56.6966
 20
-52.5167
 30
0.0
 10
-55.8958
 20
-52.5167
 30
0.0
 10
-55.2466
 20
-53.1659
 30
0.0
 10
-55.2466
 20
-53.9667
 30
0.0
 10
-55.2466
 20
-53.9667
 30
0.0
 10
-55.2466
 20
-54.7675
 30
0.0
 10
-55.8958
 20
-55.4167
 30
0.0
 10
-56.6966
 20
-55.4167
 30
0.0
 10
-56.6966
 20
-55.4167
 30
0.0
 10
-57.4974
 20
-55.4167
 30
0.0
 10
-58.1466
 20
-54.7675
 30
0.0
 10
-58.1466
 20
-53.9667
 30
0.0
  0
SPLINE
  5
1D4
330
1F
100
AcDbEntity
  8
Layer 1
370
    15
100
AcDbSpline
210
0.0
220
0.0
230
1.0
 70
    11
 71
     3
 72
    20
 73
    16
 74
     0
 42
0.0000000001
 43
0.0000000001
 12
1.0
 22
0.0
 32
0.0
 13
1.0
 23
0.0
 33
0.0
 40
0.0
 40
0.0
 40
0.0
 40
0.0
 40
0.2
 40
0.2
 40
0.2
 40
0.2
 40
0.4
 40
0.4
 40
0.4
 40
0.4
 40
0.6
 40
0.6
 40
0.6
 40
0.6
 40
1.0
 40
1.0
 40
1.0
 40
1.0
 10
-87.1466
 20
-53.9667
 30
0.0
 10
-87.1466
 20
-53.1659
 30
0.0
 10
-86.4974
 20
-52.5167
 30
0.0
 10
-85.6966
 20
-52.5167
 30
0.0
 10
-85.6966
 20
-52.5167
 30
0.0
 10
-84.8958
 20
-52.5167
 30
0.0
 10
-84.2466
 20
-53.1659
 30
0.0
 10
-84.2466
 20
-53.9667
 30
0.0
 10
-84.2466
 20
-53.9667
 30
0.0
 10
-84.2466
 20
-54.7675
 30
0.0
 10
-84.8958
 20
-55.4167
 30
0.0
 10
-85.6966
 20
-55.4167
 30
0.0
 10
-85.6966
 20
-55.4167
 30
0.0
 10
-86.4974
 20
-55.4167
 30
0.0
 10
-87.1466
 20
-54.7675
 30
0.0
 10
-87.1466
 20
-53.9667
 30
0.0
  0
SPLINE
  5
1D5
330
1F
100
AcDbEntity
  8
Layer 1
370
    15
100
AcDbSpline
210
0.0
220
0.0
230
1.0
 70
    11
 71
     3
 72
    20
 73
    16
 74
     0
 42
0.0000000001
 43
0.0000000001
 12
1.0
 22
0.0
 32
0.0
 13
1.0
 23
0.0
 33
0.0
 40
0.0
 40
0.0
 40
0.0
 40
0.0
 40
0.2
 40
0.2
 40
0.2
 40
0.2
 40
0.4
 40
0.4
 40
0.4
 40
0.4
 40
0.6
 40
0.6
 40
0.6
 40
0.6
 40
1.0
 40
1.0
 40
1.0
 40
1.0
 10
-101.6466
 20
-135.9667
 30
0.0
 10
-101.6466
 20
-135.1659
 30
0.0
 10
-100.9974
 20
-134.5167
 30
0.0
 10
-100.1966
 20
-134.5167
 30
0.0
 10
-100.1966
 20
-134.5167
 30
0.0
 10
-99.3958
 20
-134.5167
 30
0.0
 10
-98.7466
 20
-135.1659
 30
0.0
 10
-98.7466
 20
-135.9667
 30
0.0
 10
-98.7466
 20
-135.9667
 30
0.0
 10
-98.7466
 20
-136.7675
 30
0.0
 10
-99.3958
 20
-137.4167
 30
0.0
 10
-100.1966
 20
-137.4167
 30
0.0
 10
-100.1966
 20
-137.4167
 30
0.0
 10
-100.9974
 20
-137.4167
 30
0.0
 10
-101.6466
 20
-136.7675
 30
0.0
 10
-101.6466
 20
-135.9667
 30
0.0
  0
SPLINE
  5
1D6
330
1F
100
AcDbEntity
  8
Layer 1
370
    15
100
AcDbSpline
210
0.0
220
0.0
230
1.0
 70
    11
 71
     3
 72
    20
 73
    16
 74
     0
 42
0.0000000001
 43
0.0000000001
 12
1.0
 22
0.0
 32
0.0
 13
1.0
 23
0.0
 33
0.0
 40
0.0
 40
0.0
 40
0.0
 40
0.0
 40
0.2
 40
0.2
 40
0.2
 40
0.2
 40
0.4
 40
0.4
 40
0.4
 40
0.4
 40
0.6
 40
0.6
 40
0.6
 40
0.6
 40
1.0
 40
1.0
 40
1.0
 40
1.0
 10
-72.6466
 20
-135.9667
 30
0.0
 10
-72.6466
 20
-135.1659
 30
0.0
 10
-71.9974
 20
-134.5167
 30
0.0
 10
-71.1966
 20
-134.5167
 30
0.0
 10
-71.1966
 20
-134.5167
 30
0.0
 10
-70.3958
 20
-134.5167
 30
0.0
 10
-69.7466
 20
-135.1659
 30
0.0
 10
-69.7466
 20
-135.9667
 30
0.0
 10
-69.7466
 20
-135.9667
 30
0.0
 10
-69.7466
 20
-136.7675
 30
0.0
 10
-70.3958
 20
-137.4167
 30
0.0
 10
-71.1966
 20
-137.4167
 30
0.0
 10
-71.1966
 20
-137.4167
 30
0.0
 10
-71.9974
 20
-137.4167
 30
0.0
 10
-72.6466
 20
-136.7675
 30
0.0
 10
-72.6466
 20
-135.9667
 30
0.0
  0
SPLINE
  5
1D7
330
1F
100
AcDbEntity
  8
Layer 1
370
    15
100
AcDbSpline
210
0.0
220
0.0
230
1.0
 70
    11
 71
     3
 72
    20
 73
    16
 74
     0
 42
0.0000000001
 43
0.0000000001
 12
1.0
 22
0.0
 32
0.0
 13
1.0
 23
0.0
 33
0.0
 40
0.0
 40
0.0
 40
0.0
 40
0.0
 40
0.2
 40
0.2
 40
0.2
 40
0.2
 40
0.4
 40
0.4
 40
0.4
 40
0.4
 40
0.6
 40
0.6
 40
0.6
 40
0.6
 40
1.0
 40
1.0
 40
1.0
 40
1.0
 10
-43.6466
 20
-135.9667
 30
0.0
 10
-43.6466
 20
-135.1659
 30
0.0
 10
-42.9974
 20
-134.5167
 30
0.0
 10
-42.1966
 20
-134.5167
 30
0.0
 10
-42.1966
 20
-134.5167
 30
0.0
 10
-41.3958
 20
-134.5167
 30
0.0
 10
-40.7466
 20
-135.1659
 30
0.0
 10
-40.7466
 20
-135.9667
 30
0.0
 10
-40.7466
 20
-135.9667
 30
0.0
 10
-40.7466
 20
-136.7675
 30
0.0
 10
-41.3958
 20
-137.4167
 30
0.0
 10
-42.1966
 20
-137.4167
 30
0.0
 10
-42.1966
 20
-137.4167
 30
0.0
 10
-42.9974
 20
-137.4167
 30
0.0
 10
-43.6466
 20
-136.7675
 30
0.0
 10
-43.6466
 20
-135.9667
 30
0.0
  0
SPLINE
  5
1D8
330
1F
100
AcDbEntity
  8
Layer 1
370
    15
100
AcDbSpline
210
0.0
220
0.0
230
1.0
 70
    11
 71
     3
 72
    20
 73
    16
 74
     0
 42
0.0000000001
 43
0.0000000001
 12
1.0
 22
0.0
 32
0.0
 13
1.0
 23
0.0
 33
0.0
 40
0.0
 40
0.0
 40
0.0
 40
0.0
 40
0.2
 40
0.2
 40
0.2
 40
0.2
 40
0.4
 40
0.4
 40
0.4
 40
0.4
 40
0.6
 40
0.6
 40
0.6
 40
0.6
 40
1.0
 40
1.0
 40
1.0
 40
1.0
 10
-14.6466
 20
-135.9667
 30
0.0
 10
-14.6466
 20
-135.1659
 30
0.0
 10
-13.9974
 20
-134.5167
 30
0.0
 10
-13.1966
 20
-134.5167
 30
0.0
 10
-13.1966
 20
-134.5167
 30
0.0
 10
-12.3958
 20
-134.5167
 30
0.0
 10
-11.7466
 20
-135.1659
 30
0.0
 10
-11.7466
 20
-135.9667
 30
0.0
 10
-11.7466
 20
-135.9667
 30
0.0
 10
-11.7466
 20
-136.7675
 30
0.0
 10
-12.3958
 20
-137.4167
 30
0.0
 10
-13.1966
 20
-137.4167
 30
0.0
 10
-13.1966
 20
-137.4167
 30
0.0
 10
-13.9974
 20
-137.4167
 30
0.0
 10
-14.6466
 20
-136.7675
 30
0.0
 10
-14.6466
 20
-135.9667
 30
0.0
  0
SPLINE
  5
1D9
330
1F
100
AcDbEntity
  8
Layer 1
370
    15
100
AcDbSpline
210
0.0
220
0.0
230
1.0
 70
    11
 71
     3
 72
    20
 73
    16
 74
     0
 42
0.0000000001
 43
0.0000000001
 12
1.0
 22
0.0
 32
0.0
 13
1.0
 23
0.0
 33
0.0
 40
0.0
 40
0.0
 40
0.0
 40
0.0
 40
0.2
 40
0.2
 40
0.2
 40
0.2
 40
0.4
 40
0.4
 40
0.4
 40
0.4
 40
0.6
 40
0.6
 40
0.6
 40
0.6
 40
1.0
 40
1.0
 40
1.0
 40
1.0
 10
-0.1466
 20
-53.9667
 30
0.0
 10
-0.1466
 20
-53.1659
 30
0.0
 10
0.5026
 20
-52.5167
 30
0.0
 10
1.3034
 20
-52.5167
 30
0.0
 10
1.3034
 20
-52.5167
 30
0.0
 10
2.1042
 20
-52.5167
 30
0.0
 10
2.7534
 20
-53.1659
 30
0.0
 10
2.7534
 20
-53.9667
 30
0.0
 10
2.7534
 20
-53.9667
 30
0.0
 10
2.7534
 20
-54.7675
 30
0.0
 10
2.1042
 20
-55.4167
 30
0.0
 10
1.3034
 20
-55.4167
 30
0.0
 10
1.3034
 20
-55.4167
 30
0.0
 10
0.5026
 20
-55.4167
 30
0.0
 10
-0.1466
 20
-54.7675
 30
0.0
 10
-0.1466
 20
-53.9667
 30
0.0
  0
SPLINE
  5
1DA
330
1F
100
AcDbEntity
  8
Layer 1
370
    15
100
AcDbSpline
210
0.0
220
0.0
230
1.0
 70
    11
 71
     3
 72
    20
 73
    16
 74
     0
 42
0.0000000001
 43
0.0000000001
 12
1.0
 22
0.0
 32
0.0
 13
1.0
 23
0.0
 33
0.0
 40
0.0
 40
0.0
 40
0.0
 40
0.0
 40
0.2
 40
0.2
 40
0.2
 40
0.2
 40
0.4
 40
0.4
 40
0.4
 40
0.4
 40
0.6
 40
0.6
 40
0.6
 40
0.6
 40
1.0
 40
1.0
 40
1.0
 40
1.0
 10
14.3534
 20
-135.9667
 30
0.0
 10
14.3534
 20
-135.1659
 30
0.0
 10
15.0026
 20
-134.5167
 30
0.0
 10
15.8034
 20
-134.5167
 30
0.0
 10
15.8034
 20
-134.5167
 30
0.0
 10
16.6042
 20
-134.5167
 30
0.0
 10
17.2534
 20
-135.1659
 30
0.0
 10
17.2534
 20
-135.9667
 30
0.0
 10
17.2534
 20
-135.9667
 30
0.0
 10
17.2534
 20
-136.7675
 30
0.0
 10
16.6042
 20
-137.4167
 30
0.0
 10
15.8034
 20
-137.4167
 30
0.0
 10
15.8034
 20
-137.4167
 30
0.0
 10
15.0026
 20
-137.4167
 30
0.0
 10
14.3534
 20
-136.7675
 30
0.0
 10
14.3534
 20
-135.9667
 30
0.0
  0
SPLINE
  5
1DB
330
1F
100
AcDbEntity
  8
Layer 1
370
    15
100
AcDbSpline
210
0.0
220
0.0
230
1.0
 70
    11
 71
     3
 72
    20
 73
    16
 74
     0
 42
0.0000000001
 43
0.0000000001
 12
1.0
 22
0.0
 32
0.0
 13
1.0
 23
0.0
 33
0.0
 40
0.0
 40
0.0
 40
0.0
 40
0.0
 40
0.2
 40
0.2
 40
0.2
 40
0.2
 40
0.4
 40
0.4
 40
0.4
 40
0.4
 40
0.6
 40
0.6
 40
0.6
 40
0.6
 40
1.0
 40
1.0
 40
1.0
 40
1.0
 10
43.3534
 20
-135.9667
 30
0.0
 10
43.3534
 20
-135.1659
 30
0.0
 10
44.0026
 20
-134.5167
 30
0.0
 10
44.8034
 20
-134.5167
 30
0.0
 10
44.8034
 20
-134.5167
 30
0.0
 10
45.6042
 20
-134.5167
 30
0.0
 10
46.2534
 20
-135.1659
 30
0.0
 10
46.2534
 20
-135.9667
 30
0.0
 10
46.2534
 20
-135.9667
 30
0.0
 10
46.2534
 20
-136.7675
 30
0.0
 10
45.6042
 20
-137.4167
 30
0.0
 10
44.8034
 20
-137.4167
 30
0.0
 10
44.8034
 20
-137.4167
 30
0.0
 10
44.0026
 20
-137.4167
 30
0.0
 10
43.3534
 20
-136.7675
 30
0.0
 10
43.3534
 20
-135.9667
 30
0.0
  0
SPLINE
  5
1DC
330
1F
100
AcDbEntity
  8
Layer 1
370
    15
100
AcDbSpline
210
0.0
220
0.0
230
1.0
 70
    11
 71
     3
 72
    20
 73
    16
 74
     0
 42
0.0000000001
 43
0.0000000001
 12
1.0
 22
0.0
 32
0.0
 13
1.0
 23
0.0
 33
0.0
 40
0.0
 40
0.0
 40
0.0
 40
0.0
 40
0.2
 40
0.2
 40
0.2
 40
0.2
 40
0.4
 40
0.4
 40
0.4
 40
0.4
 40
0.6
 40
0.6
 40
0.6
 40
0.6
 40
1.0
 40
1.0
 40
1.0
 40
1.0
 10
28.8534
 20
-53.9667
 30
0.0
 10
28.8534
 20
-53.1659
 30
0.0
 10
29.5026
 20
-52.5167
 30
0.0
 10
30.3034
 20
-52.5167
 30
0.0
 10
30.3034
 20
-52.5167
 30
0.0
 10
31.1042
 20
-52.5167
 30
0.0
 10
31.7534
 20
-53.1659
 30
0.0
 10
31.7534
 20
-53.9667
 30
0.0
 10
31.7534
 20
-53.9667
 30
0.0
 10
31.7534
 20
-54.7675
 30
0.0
 10
31.1042
 20
-55.4167
 30
0.0
 10
30.3034
 20
-55.4167
 30
0.0
 10
30.3034
 20
-55.4167
 30
0.0
 10
29.5026
 20
-55.4167
 30
0.0
 10
28.8534
 20
-54.7675
 30
0.0
 10
28.8534
 20
-53.9667
 30
0.0
  0
SPLINE
  5
1DD
330
1F
100
AcDbEntity
  8
Layer 1
370
    15
100
AcDbSpline
210
0.0
220
0.0
230
1.0
 70
    11
 71
     3
 72
    20
 73
    16
 74
     0
 42
0.0000000001
 43
0.0000000001
 12
1.0
 22
0.0
 32
0.0
 13
1.0
 23
0.0
 33
0.0
 40
0.0
 40
0.0
 40
0.0
 40
0.0
 40
0.2
 40
0.2
 40
0.2
 40
0.2
 40
0.4
 40
0.4
 40
0.4
 40
0.4
 40
0.6
 40
0.6
 40
0.6
 40
0.6
 40
1.0
 40
1.0
 40
1.0
 40
1.0
 10
57.8534
 20
-53.9667
 30
0.0
 10
57.8534
 20
-53.1659
 30
0.0
 10
58.5026
 20
-52.5167
 30
0.0
 10
59.3034
 20
-52.5167
 30
0.0
 10
59.3034
 20
-52.5167
 30
0.0
 10
60.1042
 20
-52.5167
 30
0.0
 10
60.7534
 20
-53.1659
 30
0.0
 10
60.7534
 20
-53.9667
 30
0.0
 10
60.7534
 20
-53.9667
 30
0.0
 10
60.7534
 20
-54.7675
 30
0.0
 10
60.1042
 20
-55.4167
 30
0.0
 10
59.3034
 20
-55.4167
 30
0.0
 10
59.3034
 20
-55.4167
 30
0.0
 10
58.5026
 20
-55.4167
 30
0.0
 10
57.8534
 20
-54.7675
 30
0.0
 10
57.8534
 20
-53.9667
 30
0.0
  0
SPLINE
  5
1DE
330
1F
100
AcDbEntity
  8
Layer 1
370
    15
100
AcDbSpline
210
0.0
220
0.0
230
1.0
 70
    11
 71
     3
 72
    20
 73
    16
 74
     0
 42
0.0000000001
 43
0.0000000001
 12
1.0
 22
0.0
 32
0.0
 13
1.0
 23
0.0
 33
0.0
 40
0.0
 40
0.0
 40
0.0
 40
0.0
 40
0.2
 40
0.2
 40
0.2
 40
0.2
 40
0.4
 40
0.4
 40
0.4
 40
0.4
 40
0.6
 40
0.6
 40
0.6
 40
0.6
 40
1.0
 40
1.0
 40
1.0
 40
1.0
 10
72.3534
 20
-135.9667
 30
0.0
 10
72.3534
 20
-135.1659
 30
0.0
 10
73.0026
 20
-134.5167
 30
0.0
 10
73.8034
 20
-134.5167
 30
0.0
 10
73.8034
 20
-134.5167
 30
0.0
 10
74.6042
 20
-134.5167
 30
0.0
 10
75.2534
 20
-135.1659
 30
0.0
 10
75.2534
 20
-135.9667
 30
0.0
 10
75.2534
 20
-135.9667
 30
0.0
 10
75.2534
 20
-136.7675
 30
0.0
 10
74.6042
 20
-137.4167
 30
0.0
 10
73.8034
 20
-137.4167
 30
0.0
 10
73.8034
 20
-137.4167
 30
0.0
 10
73.0026
 20
-137.4167
 30
0.0
 10
72.3534
 20
-136.7675
 30
0.0
 10
72.3534
 20
-135.9667
 30
0.0
  0
SPLINE
  5
1DF
330
1F
100
AcDbEntity
  8
Layer 1
370
    15
100
AcDbSpline
210
0.0
220
0.0
230
1.0
 70
    11
 71
     3
 72
    20
 73
    16
 74
     0
 42
0.0000000001
 43
0.0000000001
 12
1.0
 22
0.0
 32
0.0
 13
1.0
 23
0.0
 33
0.0
 40
0.0
 40
0.0
 40
0.0
 40
0.0
 40
0.2
 40
0.2
 40
0.2
 40
0.2
 40
0.4
 40
0.4
 40
0.4
 40
0.4
 40
0.6
 40
0.6
 40
0.6
 40
0.6
 40
1.0
 40
1.0
 40
1.0
 40
1.0
 10
101.3534
 20
-135.9667
 30
0.0
 10
101.3534
 20
-135.1659
 30
0.0
 10
102.0026
 20
-134.5167
 30
0.0
 10
102.8034
 20
-134.5167
 30
0.0
 10
102.8034
 20
-134.5167
 30
0.0
 10
103.6042
 20
-134.5167
 30
0.0
 10
104.2534
 20
-135.1659
 30
0.0
 10
104.2534
 20
-135.9667
 30
0.0
 10
104.2534
 20
-135.9667
 30
0.0
 10
104.2534
 20
-136.7675
 30
0.0
 10
103.6042
 20
-137.4167
 30
0.0
 10
102.8034
 20
-137.4167
 30
0.0
 10
102.8034
 20
-137.4167
 30
0.0
 10
102.0026
 20
-137.4167
 30
0.0
 10
101.3534
 20
-136.7675
 30
0.0
 10
101.3534
 20
-135.9667
 30
0.0
  0
SPLINE
  5
1E0
330
1F
100
AcDbEntity
  8
Layer 1
370
    15
100
AcDbSpline
210
0.0
220
0.0
230
1.0
 70
    11
 71
     3
 72
    20
 73
    16
 74
     0
 42
0.0000000001
 43
0.0000000001
 12
1.0
 22
0.0
 32
0.0
 13
1.0
 23
0.0
 33
0.0
 40
0.0
 40
0.0
 40
0.0
 40
0.0
 40
0.2
 40
0.2
 40
0.2
 40
0.2
 40
0.4
 40
0.4
 40
0.4
 40
0.4
 40
0.6
 40
0.6
 40
0.6
 40
0.6
 40
1.0
 40
1.0
 40
1.0
 40
1.0
 10
86.8534
 20
-53.9667
 30
0.0
 10
86.8534
 20
-53.1659
 30
0.0
 10
87.5026
 20
-52.5167
 30
0.0
 10
88.3034
 20
-52.5167
 30
0.0
 10
88.3034
 20
-52.5167
 30
0.0
 10
89.1042
 20
-52.5167
 30
0.0
 10
89.7534
 20
-53.1659
 30
0.0
 10
89.7534
 20
-53.9667
 30
0.0
 10
89.7534
 20
-53.9667
 30
0.0
 10
89.7534
 20
-54.7675
 30
0.0
 10
89.1042
 20
-55.4167
 30
0.0
 10
88.3034
 20
-55.4167
 30
0.0
 10
88.3034
 20
-55.4167
 30
0.0
 10
87.5026
 20
-55.4167
 30
0.0
 10
86.8534
 20
-54.7675
 30
0.0
 10
86.8534
 20
-53.9667
 30
0.0
  0
SPLINE
  5
1E1
330
1F
100
AcDbEntity
  8
Layer 1
370
    15
100
AcDbSpline
210
0.0
220
0.0
230
1.0
 70
    11
 71
     3
 72
    20
 73
    16
 74
     0
 42
0.0000000001
 43
0.0000000001
 12
1.0
 22
0.0
 32
0.0
 13
1.0
 23
0.0
 33
0.0
 40
0.0
 40
0.0
 40
0.0
 40
0.0
 40
0.2
 40
0.2
 40
0.2
 40
0.2
 40
0.4
 40
0.4
 40
0.4
 40
0.4
 40
0.6
 40
0.6
 40
0.6
 40
0.6
 40
1.0
 40
1.0
 40
1.0
 40
1.0
 10
115.8534
 20
-53.9667
 30
0.0
 10
115.8534
 20
-53.1659
 30
0.0
 10
116.5026
 20
-52.5167
 30
0.0
 10
117.3034
 20
-52.5167
 30
0.0
 10
117.3034
 20
-52.5167
 30
0.0
 10
118.1042
 20
-52.5167
 30
0.0
 10
118.7534
 20
-53.1659
 30
0.0
 10
118.7534
 20
-53.9667
 30
0.0
 10
118.7534
 20
-53.9667
 30
0.0
 10
118.7534
 20
-54.7675
 30
0.0
 10
118.1042
 20
-55.4167
 30
0.0
 10
117.3034
 20
-55.4167
 30
0.0
 10
117.3034
 20
-55.4167
 30
0.0
 10
116.5026
 20
-55.4167
 30
0.0
 10
115.8534
 20
-54.7675
 30
0.0
 10
115.8534
 20
-53.9667
 30
0.0
  0
SPLINE
  5
1E2
330
1F
100
AcDbEntity
  8
Layer 1
370
    15
100
AcDbSpline
210
0.0
220
0.0
230
1.0
 70
    11
 71
     3
 72
    20
 73
    16
 74
     0
 42
0.0000000001
 43
0.0000000001
 12
1.0
 22
0.0
 32
0.0
 13
1.0
 23
0.0
 33
0.0
 40
0.0
 40
0.0
 40
0.0
 40
0.0
 40
0.2
 40
0.2
 40
0.2
 40
0.2
 40
0.4
 40
0.4
 40
0.4
 40
0.4
 40
0.6
 40
0.6
 40
0.6
 40
0.6
 40
1.0
 40
1.0
 40
1.0
 40
1.0
 10
130.3534
 20
-135.9667
 30
0.0
 10
130.3534
 20
-135.1659
 30
0.0
 10
131.0026
 20
-134.5167
 30
0.0
 10
131.8034
 20
-134.5167
 30
0.0
 10
131.8034
 20
-134.5167
 30
0.0
 10
132.6042
 20
-134.5167
 30
0.0
 10
133.2534
 20
-135.1659
 30
0.0
 10
133.2534
 20
-135.9667
 30
0.0
 10
133.2534
 20
-135.9667
 30
0.0
 10
133.2534
 20
-136.7675
 30
0.0
 10
132.6042
 20
-137.4167
 30
0.0
 10
131.8034
 20
-137.4167
 30
0.0
 10
131.8034
 20
-137.4167
 30
0.0
 10
131.0026
 20
-137.4167
 30
0.0
 10
130.3534
 20
-136.7675
 30
0.0
 10
130.3534
 20
-135.9667
 30
0.0
  0
SPLINE
  5
1E3
330
1F
100
AcDbEntity
  8
Layer 1
370
    15
100
AcDbSpline
210
0.0
220
0.0
230
1.0
 70
    11
 71
     3
 72
    20
 73
    16
 74
     0
 42
0.0000000001
 43
0.0000000001
 12
1.0
 22
0.0
 32
0.0
 13
1.0
 23
0.0
 33
0.0
 40
0.0
 40
0.0
 40
0.0
 40
0.0
 40
0.2
 40
0.2
 40
0.2
 40
0.2
 40
0.4
 40
0.4
 40
0.4
 40
0.4
 40
0.6
 40
0.6
 40
0.6
 40
0.6
 40
1.0
 40
1.0
 40
1.0
 40
1.0
 10
159.3534
 20
-135.9667
 30
0.0
 10
159.3534
 20
-135.1659
 30
0.0
 10
160.0026
 20
-134.5167
 30
0.0
 10
160.8034
 20
-134.5167
 30
0.0
 10
160.8034
 20
-134.5167
 30
0.0
 10
161.6042
 20
-134.5167
 30
0.0
 10
162.2534
 20
-135.1659
 30
0.0
 10
162.2534
 20
-135.9667
 30
0.0
 10
162.2534
 20
-135.9667
 30
0.0
 10
162.2534
 20
-136.7675
 30
0.0
 10
161.6042
 20
-137.4167
 30
0.0
 10
160.8034
 20
-137.4167
 30
0.0
 10
160.8034
 20
-137.4167
 30
0.0
 10
160.0026
 20
-137.4167
 30
0.0
 10
159.3534
 20
-136.7675
 30
0.0
 10
159.3534
 20
-135.9667
 30
0.0
  0
SPLINE
  5
1E4
330
1F
100
AcDbEntity
  8
Layer 1
370
    15
100
AcDbSpline
210
0.0
220
0.0
230
1.0
 70
    11
 71
     3
 72
    20
 73
    16
 74
     0
 42
0.0000000001
 43
0.0000000001
 12
1.0
 22
0.0
 32
0.0
 13
1.0
 23
0.0
 33
0.0
 40
0.0
 40
0.0
 40
0.0
 40
0.0
 40
0.2
 40
0.2
 40
0.2
 40
0.2
 40
0.4
 40
0.4
 40
0.4
 40
0.4
 40
0.6
 40
0.6
 40
0.6
 40
0.6
 40
1.0
 40
1.0
 40
1.0
 40
1.0
 10
188.3534
 20
-135.9667
 30
0.0
 10
188.3534
 20
-135.1659
 30
0.0
 10
189.0026
 20
-134.5167
 30
0.0
 10
189.8034
 20
-134.5167
 30
0.0
 10
189.8034
 20
-134.5167
 30
0.0
 10
190.6042
 20
-134.5167
 30
0.0
 10
191.2534
 20
-135.1659
 30
0.0
 10
191.2534
 20
-135.9667
 30
0.0
 10
191.2534
 20
-135.9667
 30
0.0
 10
191.2534
 20
-136.7675
 30
0.0
 10
190.6042
 20
-137.4167
 30
0.0
 10
189.8034
 20
-137.4167
 30
0.0
 10
189.8034
 20
-137.4167
 30
0.0
 10
189.0026
 20
-137.4167
 30
0.0
 10
188.3534
 20
-136.7675
 30
0.0
 10
188.3534
 20
-135.9667
 30
0.0
  0
SPLINE
  5
1E5
330
1F
100
AcDbEntity
  8
Layer 1
370
    15
100
AcDbSpline
210
0.0
220
0.0
230
1.0
 70
    11
 71
     3
 72
    20
 73
    16
 74
     0
 42
0.0000000001
 43
0.0000000001
 12
1.0
 22
0.0
 32
0.0
 13
1.0
 23
0.0
 33
0.0
 40
0.0
 40
0.0
 40
0.0
 40
0.0
 40
0.2
 40
0.2
 40
0.2
 40
0.2
 40
0.4
 40
0.4
 40
0.4
 40
0.4
 40
0.6
 40
0.6
 40
0.6
 40
0.6
 40
1.0
 40
1.0
 40
1.0
 40
1.0
 10
217.3534
 20
-135.9667
 30
0.0
 10
217.3534
 20
-135.1659
 30
0.0
 10
218.0026
 20
-134.5167
 30
0.0
 10
218.8034
 20
-134.5167
 30
0.0
 10
218.8034
 20
-134.5167
 30
0.0
 10
219.6042
 20
-134.5167
 30
0.0
 10
220.2534
 20
-135.1659
 30
0.0
 10
220.2534
 20
-135.9667
 30
0.0
 10
220.2534
 20
-135.9667
 30
0.0
 10
220.2534
 20
-136.7675
 30
0.0
 10
219.6042
 20
-137.4167
 30
0.0
 10
218.8034
 20
-137.4167
 30
0.0
 10
218.8034
 20
-137.4167
 30
0.0
 10
218.0026
 20
-137.4167
 30
0.0
 10
217.3534
 20
-136.7675
 30
0.0
 10
217.3534
 20
-135.9667
 30
0.0
  0
SPLINE
  5
1E6
330
1F
100
AcDbEntity
  8
Layer 1
370
    15
100
AcDbSpline
210
0.0
220
0.0
230
1.0
 70
    11
 71
     3
 72
    20
 73
    16
 74
     0
 42
0.0000000001
 43
0.0000000001
 12
1.0
 22
0.0
 32
0.0
 13
1.0
 23
0.0
 33
0.0
 40
0.0
 40
0.0
 40
0.0
 40
0.0
 40
0.2
 40
0.2
 40
0.2
 40
0.2
 40
0.4
 40
0.4
 40
0.4
 40
0.4
 40
0.6
 40
0.6
 40
0.6
 40
0.6
 40
1.0
 40
1.0
 40
1.0
 40
1.0
 10
144.8534
 20
-53.9667
 30
0.0
 10
144.8534
 20
-53.1659
 30
0.0
 10
145.5026
 20
-52.5167
 30
0.0
 10
146.3034
 20
-52.5167
 30
0.0
 10
146.3034
 20
-52.5167
 30
0.0
 10
147.1042
 20
-52.5167
 30
0.0
 10
147.7534
 20
-53.1659
 30
0.0
 10
147.7534
 20
-53.9667
 30
0.0
 10
147.7534
 20
-53.9667
 30
0.0
 10
147.7534
 20
-54.7675
 30
0.0
 10
147.1042
 20
-55.4167
 30
0.0
 10
146.3034
 20
-55.4167
 30
0.0
 10
146.3034
 20
-55.4167
 30
0.0
 10
145.5026
 20
-55.4167
 30
0.0
 10
144.8534
 20
-54.7675
 30
0.0
 10
144.8534
 20
-53.9667
 30
0.0
  0
SPLINE
  5
1E7
330
1F
100
AcDbEntity
  8
Layer 1
370
    15
100
AcDbSpline
210
0.0
220
0.0
230
1.0
 70
    11
 71
     3
 72
    20
 73
    16
 74
     0
 42
0.0000000001
 43
0.0000000001
 12
1.0
 22
0.0
 32
0.0
 13
1.0
 23
0.0
 33
0.0
 40
0.0
 40
0.0
 40
0.0
 40
0.0
 40
0.2
 40
0.2
 40
0.2
 40
0.2
 40
0.4
 40
0.4
 40
0.4
 40
0.4
 40
0.6
 40
0.6
 40
0.6
 40
0.6
 40
1.0
 40
1.0
 40
1.0
 40
1.0
 10
173.8534
 20
-53.9667
 30
0.0
 10
173.8534
 20
-53.1659
 30
0.0
 10
174.5026
 20
-52.5167
 30
0.0
 10
175.3034
 20
-52.5167
 30
0.0
 10
175.3034
 20
-52.5167
 30
0.0
 10
176.1042
 20
-52.5167
 30
0.0
 10
176.7534
 20
-53.1659
 30
0.0
 10
176.7534
 20
-53.9667
 30
0.0
 10
176.7534
 20
-53.9667
 30
0.0
 10
176.7534
 20
-54.7675
 30
0.0
 10
176.1042
 20
-55.4167
 30
0.0
 10
175.3034
 20
-55.4167
 30
0.0
 10
175.3034
 20
-55.4167
 30
0.0
 10
174.5026
 20
-55.4167
 30
0.0
 10
173.8534
 20
-54.7675
 30
0.0
 10
173.8534
 20
-53.9667
 30
0.0
  0
SPLINE
  5
1E8
330
1F
100
AcDbEntity
  8
Layer 1
370
    15
100
AcDbSpline
210
0.0
220
0.0
230
1.0
 70
    11
 71
     3
 72
    20
 73
    16
 74
     0
 42
0.0000000001
 43
0.0000000001
 12
1.0
 22
0.0
 32
0.0
 13
1.0
 23
0.0
 33
0.0
 40
0.0
 40
0.0
 40
0.0
 40
0.0
 40
0.2
 40
0.2
 40
0.2
 40
0.2
 40
0.4
 40
0.4
 40
0.4
 40
0.4
 40
0.6
 40
0.6
 40
0.6
 40
0.6
 40
1.0
 40
1.0
 40
1.0
 40
1.0
 10
202.8534
 20
-53.9667
 30
0.0
 10
202.8534
 20
-53.1659
 30
0.0
 10
203.5026
 20
-52.5167
 30
0.0
 10
204.3034
 20
-52.5167
 30
0.0
 10
204.3034
 20
-52.5167
 30
0.0
 10
205.1042
 20
-52.5167
 30
0.0
 10
205.7534
 20
-53.1659
 30
0.0
 10
205.7534
 20
-53.9667
 30
0.0
 10
205.7534
 20
-53.9667
 30
0.0
 10
205.7534
 20
-54.7675
 30
0.0
 10
205.1042
 20
-55.4167
 30
0.0
 10
204.3034
 20
-55.4167
 30
0.0
 10
204.3034
 20
-55.4167
 30
0.0
 10
203.5026
 20
-55.4167
 30
0.0
 10
202.8534
 20
-54.7675
 30
0.0
 10
202.8534
 20
-53.9667
 30
0.0
  0
SPLINE
  5
1E9
330
1F
100
AcDbEntity
  8
Layer 1
370
    15
100
AcDbSpline
210
0.0
220
0.0
230
1.0
 70
    11
 71
     3
 72
    20
 73
    16
 74
     0
 42
0.0000000001
 43
0.0000000001
 12
1.0
 22
0.0
 32
0.0
 13
1.0
 23
0.0
 33
0.0
 40
0.0
 40
0.0
 40
0.0
 40
0.0
 40
0.2
 40
0.2
 40
0.2
 40
0.2
 40
0.4
 40
0.4
 40
0.4
 40
0.4
 40
0.6
 40
0.6
 40
0.6
 40
0.6
 40
1.0
 40
1.0
 40
1.0
 40
1.0
 10
231.8534
 20
-53.9667
 30
0.0
 10
231.8534
 20
-53.1659
 30
0.0
 10
232.5026
 20
-52.5167
 30
0.0
 10
233.3034
 20
-52.5167
 30
0.0
 10
233.3034
 20
-52.5167
 30
0.0
 10
234.1042
 20
-52.5167
 30
0.0
 10
234.7534
 20
-53.1659
 30
0.0
 10
234.7534
 20
-53.9667
 30
0.0
 10
234.7534
 20
-53.9667
 30
0.0
 10
234.7534
 20
-54.7675
 30
0.0
 10
234.1042
 20
-55.4167
 30
0.0
 10
233.3034
 20
-55.4167
 30
0.0
 10
233.3034
 20
-55.4167
 30
0.0
 10
232.5026
 20
-55.4167
 30
0.0
 10
231.8534
 20
-54.7675
 30
0.0
 10
231.8534
 20
-53.9667
 30
0.0
  0
SPLINE
  5
1EA
330
1F
100
AcDbEntity
  8
Layer 1
370
    15
100
AcDbSpline
210
0.0
220
0.0
230
1.0
 70
    11
 71
     3
 72
    20
 73
    16
 74
     0
 42
0.0000000001
 43
0.0000000001
 12
1.0
 22
0.0
 32
0.0
 13
1.0
 23
0.0
 33
0.0
 40
0.0
 40
0.0
 40
0.0
 40
0.0
 40
0.2
 40
0.2
 40
0.2
 40
0.2
 40
0.4
 40
0.4
 40
0.4
 40
0.4
 40
0.6
 40
0.6
 40
0.6
 40
0.6
 40
1.0
 40
1.0
 40
1.0
 40
1.0
 10
260.8534
 20
-53.9667
 30
0.0
 10
260.8534
 20
-53.1659
 30
0.0
 10
261.5026
 20
-52.5167
 30
0.0
 10
262.3034
 20
-52.5167
 30
0.0
 10
262.3034
 20
-52.5167
 30
0.0
 10
263.1042
 20
-52.5167
 30
0.0
 10
263.7534
 20
-53.1659
 30
0.0
 10
263.7534
 20
-53.9667
 30
0.0
 10
263.7534
 20
-53.9667
 30
0.0
 10
263.7534
 20
-54.7675
 30
0.0
 10
263.1042
 20
-55.4167
 30
0.0
 10
262.3034
 20
-55.4167
 30
0.0
 10
262.3034
 20
-55.4167
 30
0.0
 10
261.5026
 20
-55.4167
 30
0.0
 10
260.8534
 20
-54.7675
 30
0.0
 10
260.8534
 20
-53.9667
 30
0.0
  0
SPLINE
  5
1EB
330
1F
100
AcDbEntity
  8
Layer 1
370
    15
100
AcDbSpline
210
0.0
220
0.0
230
1.0
 70
    11
 71
     3
 72
    20
 73
    16
 74
     0
 42
0.0000000001
 43
0.0000000001
 12
1.0
 22
0.0
 32
0.0
 13
1.0
 23
0.0
 33
0.0
 40
0.0
 40
0.0
 40
0.0
 40
0.0
 40
0.2
 40
0.2
 40
0.2
 40
0.2
 40
0.4
 40
0.4
 40
0.4
 40
0.4
 40
0.6
 40
0.6
 40
0.6
 40
0.6
 40
1.0
 40
1.0
 40
1.0
 40
1.0
 10
246.3534
 20
-135.9667
 30
0.0
 10
246.3534
 20
-135.1659
 30
0.0
 10
247.0026
 20
-134.5167
 30
0.0
 10
247.8034
 20
-134.5167
 30
0.0
 10
247.8034
 20
-134.5167
 30
0.0
 10
248.6042
 20
-134.5167
 30
0.0
 10
249.2534
 20
-135.1659
 30
0.0
 10
249.2534
 20
-135.9667
 30
0.0
 10
249.2534
 20
-135.9667
 30
0.0
 10
249.2534
 20
-136.7675
 30
0.0
 10
248.6042
 20
-137.4167
 30
0.0
 10
247.8034
 20
-137.4167
 30
0.0
 10
247.8034
 20
-137.4167
 30
0.0
 10
247.0026
 20
-137.4167
 30
0.0
 10
246.3534
 20
-136.7675
 30
0.0
 10
246.3534
 20
-135.9667
 30
0.0
  0
SPLINE
  5
1EC
330
1F
100
AcDbEntity
  8
Layer 1
370
    15
100
AcDbSpline
210
0.0
220
0.0
230
1.0
 70
     8
 71
     3
 72
    12
 73
     8
 74
     0
 42
0.0000000001
 43
0.0000000001
 12
1.0
 22
0.0
 32
0.0
 13
1.0
 23
0.0
 33
0.0
 40
0.0
 40
0.0
 40
0.0
 40
0.0
 40
0.3333333333333333
 40
0.3333333333333333
 40
0.3333333333333333
 40
0.3333333333333333
 40
1.0
 40
1.0
 40
1.0
 40
1.0
 10
276.0534
 20
-138.9667
 30
0.0
 10
274.3965
 20
-138.9667
 30
0.0
 10
273.0534
 20
-137.6236
 30
0.0
 10
273.0534
 20
-135.9667
 30
0.0
 10
273.0534
 20
-135.9667
 30
0.0
 10
273.0534
 20
-134.3099
 30
0.0
 10
274.3965
 20
-132.9667
 30
0.0
 10
276.0534
 20
-132.9667
 30
0.0
  0
SPLINE
  5
1ED
330
1F
100
AcDbEntity
  8
Layer 1
370
    15
100
AcDbSpline
210
0.0
220
0.0
230
1.0
 70
    24
 71
     3
 72
     8
 73
     4
 74
     0
 42
0.0000000001
 43
0.0000000001
 12
1.0
 22
0.0
 32
0.0
 13
1.0
 23
0.0
 33
0.0
 40
0.0
 40
0.0
 40
0.0
 40
0.0
 40
1.0
 40
1.0
 40
1.0
 40
1.0
 10
289.0534
 20
-138.9667
 30
0.0
 10
289.0534
 20
-138.9667
 30
0.0
 10
276.0534
 20
-138.9667
 30
0.0
 10
276.0534
 20
-138.9667
 30
0.0
  0
SPLINE
  5
1EE
330
1F
100
AcDbEntity
  8
Layer 1
370
    15
100
AcDbSpline
210
0.0
220
0.0
230
1.0
 70
    24
 71
     3
 72
     8
 73
     4
 74
     0
 42
0.0000000001
 43
0.0000000001
 12
1.0
 22
0.0
 32
0.0
 13
1.0
 23
0.0
 33
0.0
 40
0.0
 40
0.0
 40
0.0
 40
0.0
 40
1.0
 40
1.0
 40
1.0
 40
1.0
 10
289.0534
 20
-142.9666
 30
0.0
 10
289.0534
 20
-142.9666
 30
0.0
 10
289.0534
 20
-138.9667
 30
0.0
 10
289.0534
 20
-138.9667
 30
0.0
  0
SPLINE
  5
1EF
330
1F
100
AcDbEntity
  8
Layer 1
370
    15
100
AcDbSpline
210
0.0
220
0.0
230
1.0
 70
    24
 71
     3
 72
     8
 73
     4
 74
     0
 42
0.0000000001
 43
0.0000000001
 12
1.0
 22
0.0
 32
0.0
 13
1.0
 23
0.0
 33
0.0
 40
0.0
 40
0.0
 40
0.0
 40
0.0
 40
1.0
 40
1.0
 40
1.0
 40
1.0
 10
289.0534
 20
-142.9666
 30
0.0
 10
289.0534
 20
-142.9666
 30
0.0
 10
270.0509
 20
-142.9666
 30
0.0
 10
270.0509
 20
-142.9666
 30
0.0
  0
SPLINE
  5
1F0
330
1F
100
AcDbEntity
  8
Layer 1
370
    15
100
AcDbSpline
210
0.0
220
0.0
230
1.0
 70
     8
 71
     3
 72
     8
 73
     4
 74
     0
 42
0.0000000001
 43
0.0000000001
 12
1.0
 22
0.0
 32
0.0
 13
1.0
 23
0.0
 33
0.0
 40
0.0
 40
0.0
 40
0.0
 40
0.0
 40
1.0
 40
1.0
 40
1.0
 40
1.0
 10
270.0509
 20
-142.9666
 30
0.0
 10
269.3863
 20
-142.9666
 30
0.0
 10
268.7221
 20
-142.9335
 30
0.0
 10
268.0609
 20
-142.8674
 30
0.0
  0
SPLINE
  5
1F1
330
1F
100
AcDbEntity
  8
Layer 1
370
    15
100
AcDbSpline
210
0.0
220
0.0
230
1.0
 70
    24
 71
     3
 72
     8
 73
     4
 74
     0
 42
0.0000000001
 43
0.0000000001
 12
1.0
 22
0.0
 32
0.0
 13
1.0
 23
0.0
 33
0.0
 40
0.0
 40
0.0
 40
0.0
 40
0.0
 40
1.0
 40
1.0
 40
1.0
 40
1.0
 10
268.0609
 20
-142.8674
 30
0.0
 10
268.0609
 20
-142.8674
 30
0.0
 10
240.0459
 20
-140.066
 30
0.0
 10
240.0459
 20
-140.066
 30
0.0
  0
SPLINE
  5
1F2
330
1F
100
AcDbEntity
  8
Layer 1
370
    15
100
AcDbSpline
210
0.0
220
0.0
230
1.0
 70
     8
 71
     3
 72
     8
 73
     4
 74
     0
 42
0.0000000001
 43
0.0000000001
 12
1.0
 22
0.0
 32
0.0
 13
1.0
 23
0.0
 33
0.0
 40
0.0
 40
0.0
 40
0.0
 40
0.0
 40
1.0
 40
1.0
 40
1.0
 40
1.0
 10
238.0559
 20
-139.9667
 30
0.0
 10
238.7205
 20
-139.9667
 30
0.0
 10
239.3847
 20
-139.9998
 30
0.0
 10
240.0459
 20
-140.066
 30
0.0
  0
SPLINE
  5
1F3
330
1F
100
AcDbEntity
  8
Layer 1
370
    15
100
AcDbSpline
210
0.0
220
0.0
230
1.0
 70
    24
 71
     3
 72
     8
 73
     4
 74
     0
 42
0.0000000001
 43
0.0000000001
 12
1.0
 22
0.0
 32
0.0
 13
1.0
 23
0.0
 33
0.0
 40
0.0
 40
0.0
 40
0.0
 40
0.0
 40
1.0
 40
1.0
 40
1.0
 40
1.0
 10
238.0559
 20
-139.9667
 30
0.0
 10
238.0559
 20
-139.9667
 30
0.0
 10
-105.3674
 20
-139.9667
 30
0.0
 10
-105.3674
 20
-139.9667
 30
0.0
  0
SPLINE
  5
1F4
330
1F
100
AcDbEntity
  8
Layer 1
370
    15
100
AcDbSpline
210
0.0
220
0.0
230
1.0
 70
     8
 71
     3
 72
     8
 73
     4
 74
     0
 42
0.0000000001
 43
0.0000000001
 12
1.0
 22
0.0
 32
0.0
 13
1.0
 23
0.0
 33
0.0
 40
0.0
 40
0.0
 40
0.0
 40
0.0
 40
1.0
 40
1.0
 40
1.0
 40
1.0
 10
-105.3674
 20
-139.9667
 30
0.0
 10
-106.4186
 20
-139.9667
 30
0.0
 10
-107.4681
 20
-139.8838
 30
0.0
 10
-108.5062
 20
-139.7189
 30
0.0
  0
SPLINE
  5
1F5
330
1F
100
AcDbEntity
  8
Layer 1
370
    15
100
AcDbSpline
210
0.0
220
0.0
230
1.0
 70
    24
 71
     3
 72
     8
 73
     4
 74
     0
 42
0.0000000001
 43
0.0000000001
 12
1.0
 22
0.0
 32
0.0
 13
1.0
 23
0.0
 33
0.0
 40
0.0
 40
0.0
 40
0.0
 40
0.0
 40
1.0
 40
1.0
 40
1.0
 40
1.0
 10
-108.5062
 20
-139.7189
 30
0.0
 10
-108.5062
 20
-139.7189
 30
0.0
 10
-205.2605
 20
-124.3438
 30
0.0
 10
-205.2605
 20
-124.3438
 30
0.0
  0
SPLINE
  5
1F6
330
1F
100
AcDbEntity
  8
Layer 1
370
    15
100
AcDbSpline
210
0.0
220
0.0
230
1.0
 70
     8
 71
     3
 72
     8
 73
     4
 74
     0
 42
0.0000000001
 43
0.0000000001
 12
1.0
 22
0.0
 32
0.0
 13
1.0
 23
0.0
 33
0.0
 40
0.0
 40
0.0
 40
0.0
 40
0.0
 40
1.0
 40
1.0
 40
1.0
 40
1.0
 10
-205.2605
 20
-124.3438
 30
0.0
 10
-206.2317
 20
-124.1895
 30
0.0
 10
-206.9466
 20
-123.352
 30
0.0
 10
-206.9466
 20
-122.3686
 30
0.0
  0
SPLINE
  5
1F7
330
1F
100
AcDbEntity
  8
Layer 1
370
    15
100
AcDbSpline
210
0.0
220
0.0
230
1.0
 70
    24
 71
     3
 72
     8
 73
     4
 74
     0
 42
0.0000000001
 43
0.0000000001
 12
1.0
 22
0.0
 32
0.0
 13
1.0
 23
0.0
 33
0.0
 40
0.0
 40
0.0
 40
0.0
 40
0.0
 40
1.0
 40
1.0
 40
1.0
 40
1.0
 10
-206.9466
 20
-120.9667
 30
0.0
 10
-206.9466
 20
-120.9667
 30
0.0
 10
-206.9466
 20
-122.3686
 30
0.0
 10
-206.9466
 20
-122.3686
 30
0.0
  0
SPLINE
  5
1F8
330
1F
100
AcDbEntity
  8
Layer 1
370
    15
100
AcDbSpline
210
0.0
220
0.0
230
1.0
 70
    24
 71
     3
 72
     8
 73
     4
 74
     0
 42
0.0000000001
 43
0.0000000001
 12
1.0
 22
0.0
 32
0.0
 13
1.0
 23
0.0
 33
0.0
 40
0.0
 40
0.0
 40
0.0
 40
0.0
 40
1.0
 40
1.0
 40
1.0
 40
1.0
 10
-204.2466
 20
-120.9667
 30
0.0
 10
-204.2466
 20
-120.9667
 30
0.0
 10
-206.9466
 20
-120.9667
 30
0.0
 10
-206.9466
 20
-120.9667
 30
0.0
  0
SPLINE
  5
1F9
330
1F
100
AcDbEntity
  8
Layer 1
370
    15
100
AcDbSpline
210
0.0
220
0.0
230
1.0
 70
    24
 71
     3
 72
     8
 73
     4
 74
     0
 42
0.0000000001
 43
0.0000000001
 12
1.0
 22
0.0
 32
0.0
 13
1.0
 23
0.0
 33
0.0
 40
0.0
 40
0.0
 40
0.0
 40
0.0
 40
1.0
 40
1.0
 40
1.0
 40
1.0
 10
-204.2466
 20
-96.4167
 30
0.0
 10
-204.2466
 20
-96.4167
 30
0.0
 10
-204.2466
 20
-120.9667
 30
0.0
 10
-204.2466
 20
-120.9667
 30
0.0
  0
SPLINE
  5
1FA
330
1F
100
AcDbEntity
  8
Layer 1
370
    15
100
AcDbSpline
210
0.0
220
0.0
230
1.0
 70
    24
 71
     3
 72
     8
 73
     4
 74
     0
 42
0.0000000001
 43
0.0000000001
 12
1.0
 22
0.0
 32
0.0
 13
1.0
 23
0.0
 33
0.0
 40
0.0
 40
0.0
 40
0.0
 40
0.0
 40
1.0
 40
1.0
 40
1.0
 40
1.0
 10
42.7534
 20
-96.4167
 30
0.0
 10
42.7534
 20
-96.4167
 30
0.0
 10
-204.2466
 20
-96.4167
 30
0.0
 10
-204.2466
 20
-96.4167
 30
0.0
  0
SPLINE
  5
1FB
330
1F
100
AcDbEntity
  8
Layer 1
370
    15
100
AcDbSpline
210
0.0
220
0.0
230
1.0
 70
    24
 71
     3
 72
     8
 73
     4
 74
     0
 42
0.0000000001
 43
0.0000000001
 12
1.0
 22
0.0
 32
0.0
 13
1.0
 23
0.0
 33
0.0
 40
0.0
 40
0.0
 40
0.0
 40
0.0
 40
1.0
 40
1.0
 40
1.0
 40
1.0
 10
42.7534
 20
-93.5167
 30
0.0
 10
42.7534
 20
-93.5167
 30
0.0
 10
42.7534
 20
-96.4167
 30
0.0
 10
42.7534
 20
-96.4167
 30
0.0
  0
SPLINE
  5
1FC
330
1F
100
AcDbEntity
  8
Layer 1
370
    15
100
AcDbSpline
210
0.0
220
0.0
230
1.0
 70
    24
 71
     3
 72
     8
 73
     4
 74
     0
 42
0.0000000001
 43
0.0000000001
 12
1.0
 22
0.0
 32
0.0
 13
1.0
 23
0.0
 33
0.0
 40
0.0
 40
0.0
 40
0.0
 40
0.0
 40
1.0
 40
1.0
 40
1.0
 40
1.0
 10
42.7534
 20
-93.5167
 30
0.0
 10
42.7534
 20
-93.5167
 30
0.0
 10
-204.2466
 20
-93.5167
 30
0.0
 10
-204.2466
 20
-93.5167
 30
0.0
  0
SPLINE
  5
1FD
330
1F
100
AcDbEntity
  8
Layer 1
370
    15
100
AcDbSpline
210
0.0
220
0.0
230
1.0
 70
    24
 71
     3
 72
     8
 73
     4
 74
     0
 42
0.0000000001
 43
0.0000000001
 12
1.0
 22
0.0
 32
0.0
 13
1.0
 23
0.0
 33
0.0
 40
0.0
 40
0.0
 40
0.0
 40
0.0
 40
1.0
 40
1.0
 40
1.0
 40
1.0
 10
-204.2466
 20
-68.9667
 30
0.0
 10
-204.2466
 20
-68.9667
 30
0.0
 10
-204.2466
 20
-93.5167
 30
0.0
 10
-204.2466
 20
-93.5167
 30
0.0
  0
SPLINE
  5
1FE
330
1F
100
AcDbEntity
  8
Layer 1
370
    15
100
AcDbSpline
210
0.0
220
0.0
230
1.0
 70
    24
 71
     3
 72
     8
 73
     4
 74
     0
 42
0.0000000001
 43
0.0000000001
 12
1.0
 22
0.0
 32
0.0
 13
1.0
 23
0.0
 33
0.0
 40
0.0
 40
0.0
 40
0.0
 40
0.0
 40
1.0
 40
1.0
 40
1.0
 40
1.0
 10
-206.9466
 20
-68.9667
 30
0.0
 10
-206.9466
 20
-68.9667
 30
0.0
 10
-204.2466
 20
-68.9667
 30
0.0
 10
-204.2466
 20
-68.9667
 30
0.0
  0
SPLINE
  5
1FF
330
1F
100
AcDbEntity
  8
Layer 1
370
    15
100
AcDbSpline
210
0.0
220
0.0
230
1.0
 70
    24
 71
     3
 72
     8
 73
     4
 74
     0
 42
0.0000000001
 43
0.0000000001
 12
1.0
 22
0.0
 32
0.0
 13
1.0
 23
0.0
 33
0.0
 40
0.0
 40
0.0
 40
0.0
 40
0.0
 40
1.0
 40
1.0
 40
1.0
 40
1.0
 10
-206.9466
 20
-67.5648
 30
0.0
 10
-206.9466
 20
-67.5648
 30
0.0
 10
-206.9466
 20
-68.9667
 30
0.0
 10
-206.9466
 20
-68.9667
 30
0.0
  0
SPLINE
  5
200
330
1F
100
AcDbEntity
  8
Layer 1
370
    15
100
AcDbSpline
210
0.0
220
0.0
230
1.0
 70
     8
 71
     3
 72
     8
 73
     4
 74
     0
 42
0.0000000001
 43
0.0000000001
 12
1.0
 22
0.0
 32
0.0
 13
1.0
 23
0.0
 33
0.0
 40
0.0
 40
0.0
 40
0.0
 40
0.0
 40
1.0
 40
1.0
 40
1.0
 40
1.0
 10
-206.9466
 20
-67.5648
 30
0.0
 10
-206.9466
 20
-66.5814
 30
0.0
 10
-206.2317
 20
-65.7439
 30
0.0
 10
-205.2605
 20
-65.5896
 30
0.0
  0
SPLINE
  5
201
330
1F
100
AcDbEntity
  8
Layer 1
370
    15
100
AcDbSpline
210
0.0
220
0.0
230
1.0
 70
    24
 71
     3
 72
     8
 73
     4
 74
     0
 42
0.0000000001
 43
0.0000000001
 12
1.0
 22
0.0
 32
0.0
 13
1.0
 23
0.0
 33
0.0
 40
0.0
 40
0.0
 40
0.0
 40
0.0
 40
1.0
 40
1.0
 40
1.0
 40
1.0
 10
-108.5062
 20
-50.2145
 30
0.0
 10
-108.5062
 20
-50.2145
 30
0.0
 10
-205.2605
 20
-65.5896
 30
0.0
 10
-205.2605
 20
-65.5896
 30
0.0
  0
SPLINE
  5
202
330
1F
100
AcDbEntity
  8
Layer 1
370
    15
100
AcDbSpline
210
0.0
220
0.0
230
1.0
 70
     8
 71
     3
 72
     8
 73
     4
 74
     0
 42
0.0000000001
 43
0.0000000001
 12
1.0
 22
0.0
 32
0.0
 13
1.0
 23
0.0
 33
0.0
 40
0.0
 40
0.0
 40
0.0
 40
0.0
 40
1.0
 40
1.0
 40
1.0
 40
1.0
 10
-108.5062
 20
-50.2145
 30
0.0
 10
-107.4681
 20
-50.0496
 30
0.0
 10
-106.4186
 20
-49.9667
 30
0.0
 10
-105.3674
 20
-49.9667
 30
0.0
  0
SPLINE
  5
203
330
1F
100
AcDbEntity
  8
Layer 1
370
    15
100
AcDbSpline
210
0.0
220
0.0
230
1.0
 70
    24
 71
     3
 72
     8
 73
     4
 74
     0
 42
0.0000000001
 43
0.0000000001
 12
1.0
 22
0.0
 32
0.0
 13
1.0
 23
0.0
 33
0.0
 40
0.0
 40
0.0
 40
0.0
 40
0.0
 40
1.0
 40
1.0
 40
1.0
 40
1.0
 10
238.0559
 20
-49.9667
 30
0.0
 10
238.0559
 20
-49.9667
 30
0.0
 10
-105.3674
 20
-49.9667
 30
0.0
 10
-105.3674
 20
-49.9667
 30
0.0
  0
SPLINE
  5
204
330
1F
100
AcDbEntity
  8
Layer 1
370
    15
100
AcDbSpline
210
0.0
220
0.0
230
1.0
 70
     8
 71
     3
 72
     8
 73
     4
 74
     0
 42
0.0000000001
 43
0.0000000001
 12
1.0
 22
0.0
 32
0.0
 13
1.0
 23
0.0
 33
0.0
 40
0.0
 40
0.0
 40
0.0
 40
0.0
 40
1.0
 40
1.0
 40
1.0
 40
1.0
 10
240.0459
 20
-49.8674
 30
0.0
 10
239.3847
 20
-49.9336
 30
0.0
 10
238.7205
 20
-49.9667
 30
0.0
 10
238.0559
 20
-49.9667
 30
0.0
  0
SPLINE
  5
205
330
1F
100
AcDbEntity
  8
Layer 1
370
    15
100
AcDbSpline
210
0.0
220
0.0
230
1.0
 70
    24
 71
     3
 72
     8
 73
     4
 74
     0
 42
0.0000000001
 43
0.0000000001
 12
1.0
 22
0.0
 32
0.0
 13
1.0
 23
0.0
 33
0.0
 40
0.0
 40
0.0
 40
0.0
 40
0.0
 40
1.0
 40
1.0
 40
1.0
 40
1.0
 10
268.0609
 20
-47.066
 30
0.0
 10
268.0609
 20
-47.066
 30
0.0
 10
240.0459
 20
-49.8674
 30
0.0
 10
240.0459
 20
-49.8674
 30
0.0
  0
SPLINE
  5
206
330
1F
100
AcDbEntity
  8
Layer 1
370
    15
100
AcDbSpline
210
0.0
220
0.0
230
1.0
 70
     8
 71
     3
 72
     8
 73
     4
 74
     0
 42
0.0000000001
 43
0.0000000001
 12
1.0
 22
0.0
 32
0.0
 13
1.0
 23
0.0
 33
0.0
 40
0.0
 40
0.0
 40
0.0
 40
0.0
 40
1.0
 40
1.0
 40
1.0
 40
1.0
 10
268.0609
 20
-47.066
 30
0.0
 10
268.7221
 20
-46.9999
 30
0.0
 10
269.3863
 20
-46.9668
 30
0.0
 10
270.0509
 20
-46.9668
 30
0.0
  0
SPLINE
  5
207
330
1F
100
AcDbEntity
  8
Layer 1
370
    15
100
AcDbSpline
210
0.0
220
0.0
230
1.0
 70
    24
 71
     3
 72
     8
 73
     4
 74
     0
 42
0.0000000001
 43
0.0000000001
 12
1.0
 22
0.0
 32
0.0
 13
1.0
 23
0.0
 33
0.0
 40
0.0
 40
0.0
 40
0.0
 40
0.0
 40
1.0
 40
1.0
 40
1.0
 40
1.0
 10
289.0534
 20
-46.9668
 30
0.0
 10
289.0534
 20
-46.9668
 30
0.0
 10
270.0509
 20
-46.9668
 30
0.0
 10
270.0509
 20
-46.9668
 30
0.0
  0
SPLINE
  5
208
330
1F
100
AcDbEntity
  8
Layer 1
370
    15
100
AcDbSpline
210
0.0
220
0.0
230
1.0
 70
    24
 71
     3
 72
     8
 73
     4
 74
     0
 42
0.0000000001
 43
0.0000000001
 12
1.0
 22
0.0
 32
0.0
 13
1.0
 23
0.0
 33
0.0
 40
0.0
 40
0.0
 40
0.0
 40
0.0
 40
1.0
 40
1.0
 40
1.0
 40
1.0
 10
289.0534
 20
-132.9667
 30
0.0
 10
289.0534
 20
-132.9667
 30
0.0
 10
289.0534
 20
-46.9668
 30
0.0
 10
289.0534
 20
-46.9668
 30
0.0
  0
SPLINE
  5
209
330
1F
100
AcDbEntity
  8
Layer 1
370
    15
100
AcDbSpline
210
0.0
220
0.0
230
1.0
 70
    24
 71
     3
 72
     8
 73
     4
 74
     0
 42
0.0000000001
 43
0.0000000001
 12
1.0
 22
0.0
 32
0.0
 13
1.0
 23
0.0
 33
0.0
 40
0.0
 40
0.0
 40
0.0
 40
0.0
 40
1.0
 40
1.0
 40
1.0
 40
1.0
 10
289.0534
 20
-132.9667
 30
0.0
 10
289.0534
 20
-132.9667
 30
0.0
 10
276.0534
 20
-132.9667
 30
0.0
 10
276.0534
 20
-132.9667
 30
0.0
  0
SPLINE
  5
20A
330
1F
100
AcDbEntity
  8
Layer 1
370
    15
100
AcDbSpline
210
0.0
220
0.0
230
1.0
 70
    24
 71
     3
 72
     8
 73
     4
 74
     0
 42
0.0000000001
 43
0.0000000001
 12
1.0
 22
0.0
 32
0.0
 13
1.0
 23
0.0
 33
0.0
 40
0.0
 40
0.0
 40
0.0
 40
0.0
 40
1.0
 40
1.0
 40
1.0
 40
1.0
 10
139.0534
 20
-120.9667
 30
0.0
 10
139.0534
 20
-120.9667
 30
0.0
 10
136.0534
 20
-120.9667
 30
0.0
 10
136.0534
 20
-120.9667
 30
0.0
  0
SPLINE
  5
20B
330
1F
100
AcDbEntity
  8
Layer 1
370
    15
100
AcDbSpline
210
0.0
220
0.0
230
1.0
 70
    24
 71
     3
 72
     8
 73
     4
 74
     0
 42
0.0000000001
 43
0.0000000001
 12
1.0
 22
0.0
 32
0.0
 13
1.0
 23
0.0
 33
0.0
 40
0.0
 40
0.0
 40
0.0
 40
0.0
 40
1.0
 40
1.0
 40
1.0
 40
1.0
 10
139.0534
 20
-120.9667
 30
0.0
 10
139.0534
 20
-120.9667
 30
0.0
 10
139.0534
 20
-68.9667
 30
0.0
 10
139.0534
 20
-68.9667
 30
0.0
  0
SPLINE
  5
20C
330
1F
100
AcDbEntity
  8
Layer 1
370
    15
100
AcDbSpline
210
0.0
220
0.0
230
1.0
 70
    24
 71
     3
 72
     8
 73
     4
 74
     0
 42
0.0000000001
 43
0.0000000001
 12
1.0
 22
0.0
 32
0.0
 13
1.0
 23
0.0
 33
0.0
 40
0.0
 40
0.0
 40
0.0
 40
0.0
 40
1.0
 40
1.0
 40
1.0
 40
1.0
 10
139.0534
 20
-68.9667
 30
0.0
 10
139.0534
 20
-68.9667
 30
0.0
 10
136.0534
 20
-68.9667
 30
0.0
 10
136.0534
 20
-68.9667
 30
0.0
  0
SPLINE
  5
20D
330
1F
100
AcDbEntity
  8
Layer 1
370
    15
100
AcDbSpline
210
0.0
220
0.0
230
1.0
 70
    24
 71
     3
 72
     8
 73
     4
 74
     0
 42
0.0000000001
 43
0.0000000001
 12
1.0
 22
0.0
 32
0.0
 13
1.0
 23
0.0
 33
0.0
 40
0.0
 40
0.0
 40
0.0
 40
0.0
 40
1.0
 40
1.0
 40
1.0
 40
1.0
 10
136.0534
 20
-68.9667
 30
0.0
 10
136.0534
 20
-68.9667
 30
0.0
 10
136.0534
 20
-120.9667
 30
0.0
 10
136.0534
 20
-120.9667
 30
0.0
  0
ENDSEC
  0
SECTION
  2
OBJECTS
  0
DICTIONARY
  5
C
330
0
100
AcDbDictionary
281
     1
  3
ACAD_GROUP
350
D
  3
ACAD_LAYOUT
350
1A
  3
ACAD_MATERIAL
350
3B
  3
ACAD_MLEADERSTYLE
350
22F
  3
ACAD_MLINESTYLE
350
17
  3
ACAD_PLOTSETTINGS
350
19
  3
ACAD_PLOTSTYLENAME
350
E
  3
ACAD_TABLESTYLE
350
22E
  3
ACAD_VISUALSTYLE
350
2A
  0
DICTIONARY
  5
D
102
{ACAD_REACTORS
330
C
102
}
330
C
100
AcDbDictionary
281
     1
  0
DICTIONARY
  5
1A
102
{ACAD_REACTORS
330
C
102
}
330
C
100
AcDbDictionary
281
     1
  3
Layout1
350
1E
  3
Layout2
350
26
  3
Model
350
22
  0
DICTIONARY
  5
3B
102
{ACAD_REACTORS
330
C
102
}
330
C
100
AcDbDictionary
281
     1
  3
ByBlock
350
3D
  3
ByLayer
350
3C
  3
Global
350
3E
  0
DICTIONARY
  5
22F
102
{ACAD_REACTORS
330
C
102
}
330
C
100
AcDbDictionary
281
     1
  0
DICTIONARY
  5
17
102
{ACAD_REACTORS
330
C
102
}
330
C
100
AcDbDictionary
281
     1
  3
Standard
350
18
  0
DICTIONARY
  5
19
102
{ACAD_REACTORS
330
C
102
}
330
C
100
AcDbDictionary
281
     1
  0
ACDBDICTIONARYWDFLT
  5
E
102
{ACAD_REACTORS
330
C
102
}
330
C
100
AcDbDictionary
281
     1
  3
Normal
350
F
100
AcDbDictionaryWithDefault
340
F
  0
DICTIONARY
  5
22E
102
{ACAD_REACTORS
330
C
102
}
330
C
100
AcDbDictionary
281
     1
  0
DICTIONARY
  5
2A
102
{ACAD_REACTORS
330
C
102
}
330
C
100
AcDbDictionary
281
     1
  3
2dWireframe
350
2F
  3
3D Hidden
350
31
  3
3dWireframe
350
30
  3
Basic
350
32
  3
Brighten
350
36
  3
ColorChange
350
3A
  3
Conceptual
350
34
  3
Dim
350
35
  3
Facepattern
350
39
  3
Flat
350
2B
  3
FlatWithEdges
350
2C
  3
Gouraud
350
2D
  3
GouraudWithEdges
350
2E
  3
Linepattern
350
38
  3
Realistic
350
33
  3
Thicken
350
37
  0
LAYOUT
  5
1E
102
{ACAD_REACTORS
330
1A
102
}
330
1A
100
AcDbPlotSettings
  1

  2
none_device
  4

  6

 40
0.0
 41
0.0
 42
0.0
 43
0.0
 44
0.0
 45
0.0
 46
0.0
 47
0.0
 48
0.0
 49
0.0
140
0.0
141
0.0
142
1.0
143
1.0
 70
   688
 72
     0
 73
     0
 74
     5
  7

 75
    16
 76
     0
 77
     2
 78
   300
147
1.0
148
0.0
149
0.0
100
AcDbLayout
  1
Layout1
 70
     1
 71
     1
 10
0.0
 20
0.0
 11
12.0
 21
9.0
 12
0.0
 22
0.0
 32
0.0
 14
1.000000000000000E+20
 24
1.000000000000000E+20
 34
1.000000000000000E+20
 15
-1.000000000000000E+20
 25
-1.000000000000000E+20
 35
-1.000000000000000E+20
146
0.0
 13
0.0
 23
0.0
 33
0.0
 16
1.0
 26
0.0
 36
0.0
 17
0.0
 27
1.0
 37
0.0
 76
     0
330
1B
  0
LAYOUT
  5
26
102
{ACAD_REACTORS
330
1A
102
}
330
1A
100
AcDbPlotSettings
  1

  2
none_device
  4

  6

 40
0.0
 41
0.0
 42
0.0
 43
0.0
 44
0.0
 45
0.0
 46
0.0
 47
0.0
 48
0.0
 49
0.0
140
0.0
141
0.0
142
1.0
143
1.0
 70
   688
 72
     0
 73
     0
 74
     5
  7

 75
    16
 76
     0
 77
     2
 78
   300
147
1.0
148
0.0
149
0.0
100
AcDbLayout
  1
Layout2
 70
     1
 71
     2
 10
0.0
 20
0.0
 11
0.0
 21
0.0
 12
0.0
 22
0.0
 32
0.0
 14
0.0
 24
0.0
 34
0.0
 15
0.0
 25
0.0
 35
0.0
146
0.0
 13
0.0
 23
0.0
 33
0.0
 16
1.0
 26
0.0
 36
0.0
 17
0.0
 27
1.0
 37
0.0
 76
     0
330
23
  0
LAYOUT
  5
22
102
{ACAD_REACTORS
330
1A
102
}
330
1A
100
AcDbPlotSettings
  1

  2
none_device
  4

  6

 40
0.0
 41
0.0
 42
0.0
 43
0.0
 44
0.0
 45
0.0
 46
0.0
 47
0.0
 48
0.0
 49
0.0
140
0.0
141
0.0
142
1.0
143
1.0
 70
  1712
 72
     0
 73
     0
 74
     0
  7

 75
     0
 76
     0
 77
     2
 78
   300
147
1.0
148
0.0
149
0.0
100
AcDbLayout
  1
Model
 70
     1
 71
     0
 10
0.0
 20
0.0
 11
12.0
 21
9.0
 12
0.0
 22
0.0
 32
0.0
 14
-294.8557
 24
-143.0416
 34
0.0
 15
293.5284
 25
142.4492
 35
0.0
146
0.0
 13
0.0
 23
0.0
 33
0.0
 16
1.0
 26
0.0
 36
0.0
 17
0.0
 27
1.0
 37
0.0
 76
     0
330
1F
331
29
  0
MATERIAL
  5
3D
102
{ACAD_REACTORS
330
3B
102
}
330
3B
100
AcDbMaterial
  1
ByBlock
 72
     1
 94
      127
  0
MATERIAL
  5
3C
102
{ACAD_REACTORS
330
3B
102
}
330
3B
100
AcDbMaterial
  1
ByLayer
 72
     1
 94
      127
  0
MATERIAL
  5
3E
102
{ACAD_REACTORS
330
3B
102
}
330
3B
100
AcDbMaterial
  1
Global
 72
     1
 94
      127
  0
MLINESTYLE
  5
18
102
{ACAD_REACTORS
330
17
102
}
330
17
100
AcDbMlineStyle
  2
Standard
 70
     0
  3

 62
   256
 51
90.0
 52
90.0
 71
     2
 49
0.5
 62
   256
  6
BYLAYER
 49
-0.5
 62
   256
  6
BYLAYER
  0
ACDBPLACEHOLDER
  5
F
102
{ACAD_REACTORS
330
E
102
}
330
E
  0
VISUALSTYLE
  5
2F
102
{ACAD_REACTORS
330
2A
102
}
102
{ACAD_XDICTIONARY
360
216
102
}
330
2A
100
AcDbVisualStyle
  2
2dWireframe
 70
     4
 71
     0
 72
     2
 73
     0
 90
        0
 40
-0.6
 41
-30.0
 62
     5
 63
     7
421
 16777215
 74
     1
 91
        4
 64
     7
 65
   257
 75
     1
175
     1
 42
1.0
 92
        0
 66
   257
 43
1.0
 76
     1
 77
     6
 78
     2
 67
     7
 79
     5
170
     0
171
     0
290
     0
174
     0
 93
        1
 44
0.0
173
     0
291
     0
 45
0.0
  0
VISUALSTYLE
  5
31
102
{ACAD_REACTORS
330
2A
102
}
102
{ACAD_XDICTIONARY
360
21A
102
}
330
2A
100
AcDbVisualStyle
  2
3D Hidden
 70
     6
 71
     1
 72
     2
 73
     2
 90
        0
 40
-0.6
 41
-30.0
 62
     5
 63
     7
421
 16777215
 74
     2
 91
        2
 64
     7
 65
   257
 75
     2
175
     1
 42
40.0
 92
        0
 66
   257
 43
1.0
 76
     1
 77
     6
 78
     2
 67
     7
 79
     3
170
     0
171
     0
290
     0
174
     0
 93
        1
 44
0.0
173
     0
291
     0
 45
0.0
  0
VISUALSTYLE
  5
30
102
{ACAD_REACTORS
330
2A
102
}
102
{ACAD_XDICTIONARY
360
218
102
}
330
2A
100
AcDbVisualStyle
  2
3dWireframe
 70
     5
 71
     0
 72
     2
 73
     0
 90
        0
 40
-0.6
 41
-30.0
 62
     5
 63
     7
421
 16777215
 74
     1
 91
        4
 64
     7
 65
   257
 75
     1
175
     1
 42
1.0
 92
        0
 66
   257
 43
1.0
 76
     1
 77
     6
 78
     2
 67
     7
 79
     5
170
     0
171
     0
290
     0
174
     0
 93
        1
 44
0.0
173
     0
291
     0
 45
0.0
  0
VISUALSTYLE
  5
32
102
{ACAD_REACTORS
330
2A
102
}
102
{ACAD_XDICTIONARY
360
21C
102
}
330
2A
100
AcDbVisualStyle
  2
Basic
 70
     7
 71
     1
 72
     0
 73
     1
 90
        0
 40
-0.6
 41
-30.0
 62
     5
 63
     7
421
 16777215
 74
     0
 91
        4
 64
     7
 65
   257
 75
     1
175
     1
 42
1.0
 92
        8
 66
     7
 43
1.0
 76
     1
 77
     6
 78
     2
 67
     7
 79
     5
170
     0
171
     0
290
     0
174
     0
 93
        1
 44
0.0
173
     0
291
     1
 45
0.0
  0
VISUALSTYLE
  5
36
102
{ACAD_REACTORS
330
2A
102
}
102
{ACAD_XDICTIONARY
360
224
102
}
330
2A
100
AcDbVisualStyle
  2
Brighten
 70
    12
 71
     2
 72
     2
 73
     0
 90
        0
 40
-0.6
 41
-30.0
 62
     5
 63
     7
421
 16777215
 74
     1
 91
        4
 64
     7
 65
   257
 75
     1
175
     1
 42
1.0
 92
        8
 66
     7
 43
1.0
 76
     1
 77
     6
 78
     2
 67
     7
 79
     5
170
     0
171
     0
290
     0
174
     0
 93
        1
 44
50.0
173
     0
291
     1
 45
0.0
  0
VISUALSTYLE
  5
3A
102
{ACAD_REACTORS
330
2A
102
}
102
{ACAD_XDICTIONARY
360
22C
102
}
330
2A
100
AcDbVisualStyle
  2
ColorChange
 70
    16
 71
     2
 72
     2
 73
     3
 90
        0
 40
-0.6
 41
-30.0
 62
     5
 63
     8
421
  8421504
 74
     1
 91
        4
 64
     7
 65
   257
 75
     1
175
     1
 42
1.0
 92
        8
 66
     8
424
  8421504
 43
1.0
 76
     1
 77
     6
 78
     2
 67
     7
 79
     5
170
     0
171
     0
290
     0
174
     0
 93
        1
 44
0.0
173
     0
291
     1
 45
0.0
  0
VISUALSTYLE
  5
34
102
{ACAD_REACTORS
330
2A
102
}
102
{ACAD_XDICTIONARY
360
220
102
}
330
2A
100
AcDbVisualStyle
  2
Conceptual
 70
     9
 71
     3
 72
     2
 73
     0
 90
        0
 40
-0.6
 41
-30.0
 62
     5
 63
     7
421
 16777215
 74
     2
 91
        2
 64
     7
 65
   257
 75
     1
175
     1
 42
40.0
 92
        8
 66
     7
 43
1.0
 76
     1
 77
     6
 78
     2
 67
     7
 79
     3
170
     0
171
     0
290
     0
174
     0
 93
        1
 44
0.0
173
     0
291
     0
 45
0.0
  0
VISUALSTYLE
  5
35
102
{ACAD_REACTORS
330
2A
102
}
102
{ACAD_XDICTIONARY
360
222
102
}
330
2A
100
AcDbVisualStyle
  2
Dim
 70
    11
 71
     2
 72
     2
 73
     0
 90
        0
 40
-0.6
 41
-30.0
 62
     5
 63
     7
421
 16777215
 74
     1
 91
        4
 64
     7
 65
   257
 75
     1
175
     1
 42
1.0
 92
        8
 66
     7
 43
1.0
 76
     1
 77
     6
 78
     2
 67
     7
 79
     5
170
     0
171
     0
290
     0
174
     0
 93
        1
 44
-50.0
173
     0
291
     1
 45
0.0
  0
VISUALSTYLE
  5
39
102
{ACAD_REACTORS
330
2A
102
}
102
{ACAD_XDICTIONARY
360
22A
102
}
330
2A
100
AcDbVisualStyle
  2
Facepattern
 70
    15
 71
     2
 72
     2
 73
     0
 90
        0
 40
-0.6
 41
-30.0
 62
     5
 63
     7
421
 16777215
 74
     1
 91
        4
 64
     7
 65
   257
 75
     1
175
     1
 42
1.0
 92
        8
 66
     7
 43
1.0
 76
     1
 77
     6
 78
     2
 67
     7
 79
     5
170
     0
171
     0
290
     0
174
     0
 93
        1
 44
0.0
173
     0
291
     1
 45
0.0
  0
VISUALSTYLE
  5
2B
102
{ACAD_REACTORS
330
2A
102
}
102
{ACAD_XDICTIONARY
360
20E
102
}
330
2A
100
AcDbVisualStyle
  2
Flat
 70
     0
 71
     2
 72
     1
 73
     1
 90
        2
 40
-0.6
 41
30.0
 62
     5
 63
     7
421
 16777215
 74
     0
 91
        4
 64
     7
 65
   257
 75
     1
175
     1
 42
1.0
 92
        8
 66
     7
 43
1.0
 76
     1
 77
     6
 78
     2
 67
     7
 79
     5
170
     0
171
     0
290
     0
174
     0
 93
       13
 44
0.0
173
     0
291
     1
 45
0.0
  0
VISUALSTYLE
  5
2C
102
{ACAD_REACTORS
330
2A
102
}
102
{ACAD_XDICTIONARY
360
210
102
}
330
2A
100
AcDbVisualStyle
  2
FlatWithEdges
 70
     1
 71
     2
 72
     1
 73
     1
 90
        2
 40
-0.6
 41
30.0
 62
     5
 63
     7
421
 16777215
 74
     1
 91
        4
 64
     7
 65
   257
 75
     1
175
     1
 42
1.0
 92
        0
 66
   257
 43
1.0
 76
     1
 77
     6
 78
     2
 67
     7
 79
     5
170
     0
171
     0
290
     0
174
     0
 93
       13
 44
0.0
173
     0
291
     1
 45
0.0
  0
VISUALSTYLE
  5
2D
102
{ACAD_REACTORS
330
2A
102
}
102
{ACAD_XDICTIONARY
360
212
102
}
330
2A
100
AcDbVisualStyle
  2
Gouraud
 70
     2
 71
     2
 72
     2
 73
     1
 90
        2
 40
-0.6
 41
30.0
 62
     5
 63
     7
421
 16777215
 74
     0
 91
        4
 64
     7
 65
   257
 75
     1
175
     1
 42
1.0
 92
        0
 66
     7
 43
1.0
 76
     1
 77
     6
 78
     2
 67
     7
 79
     5
170
     0
171
     0
290
     0
174
     0
 93
       13
 44
0.0
173
     0
291
     1
 45
0.0
  0
VISUALSTYLE
  5
2E
102
{ACAD_REACTORS
330
2A
102
}
102
{ACAD_XDICTIONARY
360
214
102
}
330
2A
100
AcDbVisualStyle
  2
GouraudWithEdges
 70
     3
 71
     2
 72
     2
 73
     1
 90
        2
 40
-0.6
 41
30.0
 62
     5
 63
     7
421
 16777215
 74
     1
 91
        4
 64
     7
 65
   257
 75
     1
175
     1
 42
1.0
 92
        0
 66
   257
 43
1.0
 76
     1
 77
     6
 78
     2
 67
     7
 79
     5
170
     0
171
     0
290
     0
174
     0
 93
       13
 44
0.0
173
     0
291
     1
 45
0.0
  0
VISUALSTYLE
  5
38
102
{ACAD_REACTORS
330
2A
102
}
102
{ACAD_XDICTIONARY
360
228
102
}
330
2A
100
AcDbVisualStyle
  2
Linepattern
 70
    14
 71
     2
 72
     2
 73
     0
 90
        0
 40
-0.6
 41
-30.0
 62
     5
 63
     7
421
 16777215
 74
     1
 91
        4
 64
     7
 65
   257
 75
     7
175
     7
 42
1.0
 92
        8
 66
     7
 43
1.0
 76
     1
 77
     6
 78
     2
 67
     7
 79
     5
170
     0
171
     0
290
     0
174
     0
 93
        1
 44
0.0
173
     0
291
     1
 45
0.0
  0
VISUALSTYLE
  5
33
102
{ACAD_REACTORS
330
2A
102
}
102
{ACAD_XDICTIONARY
360
21E
102
}
330
2A
100
AcDbVisualStyle
  2
Realistic
 70
     8
 71
     2
 72
     2
 73
     0
 90
        0
 40
-0.6
 41
-30.0
 62
     5
 63
     7
421
 16777215
 74
     1
 91
        0
 64
     7
 65
   257
 75
     1
175
     1
 42
1.0
 92
        8
 66
     8
424
  7895160
 43
1.0
 76
     1
 77
     6
 78
     2
 67
     7
 79
     5
170
     0
171
     0
290
     0
174
     0
 93
       13
 44
0.0
173
     0
291
     0
 45
0.0
  0
VISUALSTYLE
  5
37
102
{ACAD_REACTORS
330
2A
102
}
102
{ACAD_XDICTIONARY
360
226
102
}
330
2A
100
AcDbVisualStyle
  2
Thicken
 70
    13
 71
     2
 72
     2
 73
     0
 90
        0
 40
-0.6
 41
-30.0
 62
     5
 63
     7
421
 16777215
 74
     1
 91
        4
 64
     7
 65
   257
 75
     1
175
     1
 42
1.0
 92
       12
 66
     7
 43
1.0
 76
     1
 77
     6
 78
     2
 67
     7
 79
     5
170
     0
171
     0
290
     0
174
     0
 93
        1
 44
0.0
173
     0
291
     1
 45
0.0
  0
DICTIONARY
  5
216
330
2F
100
AcDbDictionary
280
     1
281
     1
  3
ACAD_XREC_ROUNDTRIP
360
217
  0
DICTIONARY
  5
21A
330
31
100
AcDbDictionary
280
     1
281
     1
  3
ACAD_XREC_ROUNDTRIP
360
21B
  0
DICTIONARY
  5
218
330
30
100
AcDbDictionary
280
     1
281
     1
  3
ACAD_XREC_ROUNDTRIP
360
219
  0
DICTIONARY
  5
21C
330
32
100
AcDbDictionary
280
     1
281
     1
  3
ACAD_XREC_ROUNDTRIP
360
21D
  0
DICTIONARY
  5
224
330
36
100
AcDbDictionary
280
     1
281
     1
  3
ACAD_XREC_ROUNDTRIP
360
225
  0
DICTIONARY
  5
22C
330
3A
100
AcDbDictionary
280
     1
281
     1
  3
ACAD_XREC_ROUNDTRIP
360
22D
  0
DICTIONARY
  5
220
330
34
100
AcDbDictionary
280
     1
281
     1
  3
ACAD_XREC_ROUNDTRIP
360
221
  0
DICTIONARY
  5
222
330
35
100
AcDbDictionary
280
     1
281
     1
  3
ACAD_XREC_ROUNDTRIP
360
223
  0
DICTIONARY
  5
22A
330
39
100
AcDbDictionary
280
     1
281
     1
  3
ACAD_XREC_ROUNDTRIP
360
22B
  0
DICTIONARY
  5
20E
330
2B
100
AcDbDictionary
280
     1
281
     1
  3
ACAD_XREC_ROUNDTRIP
360
20F
  0
DICTIONARY
  5
210
330
2C
100
AcDbDictionary
280
     1
281
     1
  3
ACAD_XREC_ROUNDTRIP
360
211
  0
DICTIONARY
  5
212
330
2D
100
AcDbDictionary
280
     1
281
     1
  3
ACAD_XREC_ROUNDTRIP
360
213
  0
DICTIONARY
  5
214
330
2E
100
AcDbDictionary
280
     1
281
     1
  3
ACAD_XREC_ROUNDTRIP
360
215
  0
DICTIONARY
  5
228
330
38
100
AcDbDictionary
280
     1
281
     1
  3
ACAD_XREC_ROUNDTRIP
360
229
  0
DICTIONARY
  5
21E
330
33
100
AcDbDictionary
280
     1
281
     1
  3
ACAD_XREC_ROUNDTRIP
360
21F
  0
DICTIONARY
  5
226
330
37
100
AcDbDictionary
280
     1
281
     1
  3
ACAD_XREC_ROUNDTRIP
360
227
  0
XRECORD
  5
217
102
{ACAD_REACTORS
330
216
102
}
330
216
100
AcDbXrecord
280
     1
102
RTVSPropertyOp0
 70
     1
102
RTVSPropertyOp1
 70
     1
102
RTVSPropertyOp2
 70
     1
102
RTVSPropertyOp3
 70
     1
102
RTVSPropertyOp4
 70
     1
102
RTVSPropertyOp5
 70
     1
102
RTVSPropertyOp6
 70
     1
102
RTVSPropertyOp7
 70
     1
102
RTVSPropertyOp8
 70
     1
102
RTVSPropertyOp9
 70
     1
102
RTVSPropertyOp10
 70
     1
102
RTVSPropertyOp11
 70
     1
102
RTVSPropertyOp12
 70
     1
102
RTVSPropertyOp13
 70
     1
102
RTVSPropertyOp14
 70
     1
102
RTVSPropertyOp15
 70
     1
102
RTVSPropertyOp16
 70
     1
102
RTVSPropertyOp17
 70
     1
102
RTVSPropertyOp18
 70
     1
102
RTVSPropertyOp19
 70
     1
102
RTVSPropertyOp20
 70
     1
102
RTVSPropertyOp21
 70
     1
102
RTVSPropertyOp22
 70
     1
102
RTVSPropertyOp23
 70
     1
102
RTVSPropertyOp24
 70
     1
102
RTVSPropertyOp25
 70
     1
102
RTVSPropertyOp26
 70
     1
102
RTVSPropertyOp27
 70
     1
102
RTVSPropertyOp28
 70
     1
102
RTVSPropertyOp29
 70
     1
102
RTVSPropertyOp30
 70
     1
102
RTVSPropertyOp31
 70
     1
102
RTVSPropertyOp32
 70
     1
  0
XRECORD
  5
21B
102
{ACAD_REACTORS
330
21A
102
}
330
21A
100
AcDbXrecord
280
     1
102
RTVSPropertyOp0
 70
     1
102
RTVSPropertyOp1
 70
     1
102
RTVSPropertyOp2
 70
     1
102
RTVSPropertyOp3
 70
     1
102
RTVSPropertyOp4
 70
     1
102
RTVSPropertyOp5
 70
     1
102
RTVSPropertyOp6
 70
     1
102
RTVSPropertyOp7
 70
     1
102
RTVSPropertyOp8
 70
     1
102
RTVSPropertyOp9
 70
     1
102
RTVSPropertyOp10
 70
     1
102
RTVSPropertyOp11
 70
     1
102
RTVSPropertyOp12
 70
     1
102
RTVSPropertyOp13
 70
     1
102
RTVSPropertyOp14
 70
     1
102
RTVSPropertyOp15
 70
     1
102
RTVSPropertyOp16
 70
     1
102
RTVSPropertyOp17
 70
     1
102
RTVSPropertyOp18
 70
     1
102
RTVSPropertyOp19
 70
     1
102
RTVSPropertyOp20
 70
     1
102
RTVSPropertyOp21
 70
     1
102
RTVSPropertyOp22
 70
     1
102
RTVSPropertyOp23
 70
     1
102
RTVSPropertyOp24
 70
     1
102
RTVSPropertyOp25
 70
     1
102
RTVSPropertyOp26
 70
     1
102
RTVSPropertyOp27
 70
     1
102
RTVSPropertyOp28
 70
     1
102
RTVSPropertyOp29
 70
     1
102
RTVSPropertyOp30
 70
     1
102
RTVSPropertyOp31
 70
     1
102
RTVSPropertyOp32
 70
     1
  0
XRECORD
  5
219
102
{ACAD_REACTORS
330
218
102
}
330
218
100
AcDbXrecord
280
     1
102
RTVSPropertyOp0
 70
     1
102
RTVSPropertyOp1
 70
     1
102
RTVSPropertyOp2
 70
     1
102
RTVSPropertyOp3
 70
     1
102
RTVSPropertyOp4
 70
     1
102
RTVSPropertyOp5
 70
     1
102
RTVSPropertyOp6
 70
     1
102
RTVSPropertyOp7
 70
     1
102
RTVSPropertyOp8
 70
     1
102
RTVSPropertyOp9
 70
     1
102
RTVSPropertyOp10
 70
     1
102
RTVSPropertyOp11
 70
     1
102
RTVSPropertyOp12
 70
     1
102
RTVSPropertyOp13
 70
     1
102
RTVSPropertyOp14
 70
     1
102
RTVSPropertyOp15
 70
     1
102
RTVSPropertyOp16
 70
     1
102
RTVSPropertyOp17
 70
     1
102
RTVSPropertyOp18
 70
     1
102
RTVSPropertyOp19
 70
     1
102
RTVSPropertyOp20
 70
     1
102
RTVSPropertyOp21
 70
     1
102
RTVSPropertyOp22
 70
     1
102
RTVSPropertyOp23
 70
     1
102
RTVSPropertyOp24
 70
     1
102
RTVSPropertyOp25
 70
     1
102
RTVSPropertyOp26
 70
     1
102
RTVSPropertyOp27
 70
     1
102
RTVSPropertyOp28
 70
     1
102
RTVSPropertyOp29
 70
     1
102
RTVSPropertyOp30
 70
     1
102
RTVSPropertyOp31
 70
     1
102
RTVSPropertyOp32
 70
     1
  0
XRECORD
  5
21D
102
{ACAD_REACTORS
330
21C
102
}
330
21C
100
AcDbXrecord
280
     1
102
RTVSPropertyOp0
 70
     1
102
RTVSPropertyOp1
 70
     1
102
RTVSPropertyOp2
 70
     1
102
RTVSPropertyOp3
 70
     1
102
RTVSPropertyOp4
 70
     1
102
RTVSPropertyOp5
 70
     1
102
RTVSPropertyOp6
 70
     1
102
RTVSPropertyOp7
 70
     1
102
RTVSPropertyOp8
 70
     1
102
RTVSPropertyOp9
 70
     1
102
RTVSPropertyOp10
 70
     1
102
RTVSPropertyOp11
 70
     1
102
RTVSPropertyOp12
 70
     1
102
RTVSPropertyOp13
 70
     1
102
RTVSPropertyOp14
 70
     1
102
RTVSPropertyOp15
 70
     1
102
RTVSPropertyOp16
 70
     1
102
RTVSPropertyOp17
 70
     1
102
RTVSPropertyOp18
 70
     1
102
RTVSPropertyOp19
 70
     1
102
RTVSPropertyOp20
 70
     1
102
RTVSPropertyOp21
 70
     1
102
RTVSPropertyOp22
 70
     1
102
RTVSPropertyOp23
 70
     1
102
RTVSPropertyOp24
 70
     1
102
RTVSPropertyOp25
 70
     1
102
RTVSPropertyOp26
 70
     1
102
RTVSPropertyOp27
 70
     1
102
RTVSPropertyOp28
 70
     1
102
RTVSPropertyOp29
 70
     1
102
RTVSPropertyOp30
 70
     1
102
RTVSPropertyOp31
 70
     1
102
RTVSPropertyOp32
 70
     1
  0
XRECORD
  5
225
102
{ACAD_REACTORS
330
224
102
}
330
224
100
AcDbXrecord
280
     1
102
RTVSPropertyOp0
 70
     1
102
RTVSPropertyOp1
 70
     1
102
RTVSPropertyOp2
 70
     1
102
RTVSPropertyOp3
 70
     1
102
RTVSPropertyOp4
 70
     1
102
RTVSPropertyOp5
 70
     1
102
RTVSPropertyOp6
 70
     1
102
RTVSPropertyOp7
 70
     1
102
RTVSPropertyOp8
 70
     1
102
RTVSPropertyOp9
 70
     1
102
RTVSPropertyOp10
 70
     1
102
RTVSPropertyOp11
 70
     1
102
RTVSPropertyOp12
 70
     1
102
RTVSPropertyOp13
 70
     1
102
RTVSPropertyOp14
 70
     1
102
RTVSPropertyOp15
 70
     1
102
RTVSPropertyOp16
 70
     1
102
RTVSPropertyOp17
 70
     1
102
RTVSPropertyOp18
 70
     1
102
RTVSPropertyOp19
 70
     1
102
RTVSPropertyOp20
 70
     1
102
RTVSPropertyOp21
 70
     1
102
RTVSPropertyOp22
 70
     1
102
RTVSPropertyOp23
 70
     1
102
RTVSPropertyOp24
 70
     1
102
RTVSPropertyOp25
 70
     1
102
RTVSPropertyOp26
 70
     1
102
RTVSPropertyOp27
 70
     1
102
RTVSPropertyOp28
 70
     1
102
RTVSPropertyOp29
 70
     1
102
RTVSPropertyOp30
 70
     1
102
RTVSPropertyOp31
 70
     1
102
RTVSPropertyOp32
 70
     1
  0
XRECORD
  5
22D
102
{ACAD_REACTORS
330
22C
102
}
330
22C
100
AcDbXrecord
280
     1
102
RTVSPropertyOp0
 70
     1
102
RTVSPropertyOp1
 70
     1
102
RTVSPropertyOp2
 70
     1
102
RTVSPropertyOp3
 70
     1
102
RTVSPropertyOp4
 70
     1
102
RTVSPropertyOp5
 70
     1
102
RTVSPropertyOp6
 70
     1
102
RTVSPropertyOp7
 70
     1
102
RTVSPropertyOp8
 70
     1
102
RTVSPropertyOp9
 70
     1
102
RTVSPropertyOp10
 70
     1
102
RTVSPropertyOp11
 70
     1
102
RTVSPropertyOp12
 70
     1
102
RTVSPropertyOp13
 70
     1
102
RTVSPropertyOp14
 70
     1
102
RTVSPropertyOp15
 70
     1
102
RTVSPropertyOp16
 70
     1
102
RTVSPropertyOp17
 70
     1
102
RTVSPropertyOp18
 70
     1
102
RTVSPropertyOp19
 70
     1
102
RTVSPropertyOp20
 70
     1
102
RTVSPropertyOp21
 70
     1
102
RTVSPropertyOp22
 70
     1
102
RTVSPropertyOp23
 70
     1
102
RTVSPropertyOp24
 70
     1
102
RTVSPropertyOp25
 70
     1
102
RTVSPropertyOp26
 70
     1
102
RTVSPropertyOp27
 70
     1
102
RTVSPropertyOp28
 70
     1
102
RTVSPropertyOp29
 70
     1
102
RTVSPropertyOp30
 70
     1
102
RTVSPropertyOp31
 70
     1
102
RTVSPropertyOp32
 70
     1
  0
XRECORD
  5
221
102
{ACAD_REACTORS
330
220
102
}
330
220
100
AcDbXrecord
280
     1
102
RTVSPropertyOp0
 70
     1
102
RTVSPropertyOp1
 70
     1
102
RTVSPropertyOp2
 70
     1
102
RTVSPropertyOp3
 70
     1
102
RTVSPropertyOp4
 70
     1
102
RTVSPropertyOp5
 70
     1
102
RTVSPropertyOp6
 70
     1
102
RTVSPropertyOp7
 70
     1
102
RTVSPropertyOp8
 70
     1
102
RTVSPropertyOp9
 70
     1
102
RTVSPropertyOp10
 70
     1
102
RTVSPropertyOp11
 70
     1
102
RTVSPropertyOp12
 70
     1
102
RTVSPropertyOp13
 70
     1
102
RTVSPropertyOp14
 70
     1
102
RTVSPropertyOp15
 70
     1
102
RTVSPropertyOp16
 70
     1
102
RTVSPropertyOp17
 70
     1
102
RTVSPropertyOp18
 70
     1
102
RTVSPropertyOp19
 70
     1
102
RTVSPropertyOp20
 70
     1
102
RTVSPropertyOp21
 70
     1
102
RTVSPropertyOp22
 70
     1
102
RTVSPropertyOp23
 70
     1
102
RTVSPropertyOp24
 70
     1
102
RTVSPropertyOp25
 70
     1
102
RTVSPropertyOp26
 70
     1
102
RTVSPropertyOp27
 70
     1
102
RTVSPropertyOp28
 70
     1
102
RTVSPropertyOp29
 70
     1
102
RTVSPropertyOp30
 70
     1
102
RTVSPropertyOp31
 70
     1
102
RTVSPropertyOp32
 70
     1
  0
XRECORD
  5
223
102
{ACAD_REACTORS
330
222
102
}
330
222
100
AcDbXrecord
280
     1
102
RTVSPropertyOp0
 70
     1
102
RTVSPropertyOp1
 70
     1
102
RTVSPropertyOp2
 70
     1
102
RTVSPropertyOp3
 70
     1
102
RTVSPropertyOp4
 70
     1
102
RTVSPropertyOp5
 70
     1
102
RTVSPropertyOp6
 70
     1
102
RTVSPropertyOp7
 70
     1
102
RTVSPropertyOp8
 70
     1
102
RTVSPropertyOp9
 70
     1
102
RTVSPropertyOp10
 70
     1
102
RTVSPropertyOp11
 70
     1
102
RTVSPropertyOp12
 70
     1
102
RTVSPropertyOp13
 70
     1
102
RTVSPropertyOp14
 70
     1
102
RTVSPropertyOp15
 70
     1
102
RTVSPropertyOp16
 70
     1
102
RTVSPropertyOp17
 70
     1
102
RTVSPropertyOp18
 70
     1
102
RTVSPropertyOp19
 70
     1
102
RTVSPropertyOp20
 70
     1
102
RTVSPropertyOp21
 70
     1
102
RTVSPropertyOp22
 70
     1
102
RTVSPropertyOp23
 70
     1
102
RTVSPropertyOp24
 70
     1
102
RTVSPropertyOp25
 70
     1
102
RTVSPropertyOp26
 70
     1
102
RTVSPropertyOp27
 70
     1
102
RTVSPropertyOp28
 70
     1
102
RTVSPropertyOp29
 70
     1
102
RTVSPropertyOp30
 70
     1
102
RTVSPropertyOp31
 70
     1
102
RTVSPropertyOp32
 70
     1
  0
XRECORD
  5
22B
102
{ACAD_REACTORS
330
22A
102
}
330
22A
100
AcDbXrecord
280
     1
102
RTVSPropertyOp0
 70
     1
102
RTVSPropertyOp1
 70
     1
102
RTVSPropertyOp2
 70
     1
102
RTVSPropertyOp3
 70
     1
102
RTVSPropertyOp4
 70
     1
102
RTVSPropertyOp5
 70
     1
102
RTVSPropertyOp6
 70
     1
102
RTVSPropertyOp7
 70
     1
102
RTVSPropertyOp8
 70
     1
102
RTVSPropertyOp9
 70
     1
102
RTVSPropertyOp10
 70
     1
102
RTVSPropertyOp11
 70
     1
102
RTVSPropertyOp12
 70
     1
102
RTVSPropertyOp13
 70
     1
102
RTVSPropertyOp14
 70
     1
102
RTVSPropertyOp15
 70
     1
102
RTVSPropertyOp16
 70
     1
102
RTVSPropertyOp17
 70
     1
102
RTVSPropertyOp18
 70
     1
102
RTVSPropertyOp19
 70
     1
102
RTVSPropertyOp20
 70
     1
102
RTVSPropertyOp21
 70
     1
102
RTVSPropertyOp22
 70
     1
102
RTVSPropertyOp23
 70
     1
102
RTVSPropertyOp24
 70
     1
102
RTVSPropertyOp25
 70
     1
102
RTVSPropertyOp26
 70
     1
102
RTVSPropertyOp27
 70
     1
102
RTVSPropertyOp28
 70
     1
102
RTVSPropertyOp29
 70
     1
102
RTVSPropertyOp30
 70
     1
102
RTVSPropertyOp31
 70
     1
102
RTVSPropertyOp32
 70
     1
  0
XRECORD
  5
20F
102
{ACAD_REACTORS
330
20E
102
}
330
20E
100
AcDbXrecord
280
     1
102
RTVSPropertyOp0
 70
     1
102
RTVSPropertyOp1
 70
     1
102
RTVSPropertyOp2
 70
     1
102
RTVSPropertyOp3
 70
     1
102
RTVSPropertyOp4
 70
     1
102
RTVSPropertyOp5
 70
     1
102
RTVSPropertyOp6
 70
     1
102
RTVSPropertyOp7
 70
     1
102
RTVSPropertyOp8
 70
     1
102
RTVSPropertyOp9
 70
     1
102
RTVSPropertyOp10
 70
     1
102
RTVSPropertyOp11
 70
     1
102
RTVSPropertyOp12
 70
     1
102
RTVSPropertyOp13
 70
     1
102
RTVSPropertyOp14
 70
     1
102
RTVSPropertyOp15
 70
     1
102
RTVSPropertyOp16
 70
     1
102
RTVSPropertyOp17
 70
     1
102
RTVSPropertyOp18
 70
     1
102
RTVSPropertyOp19
 70
     1
102
RTVSPropertyOp20
 70
     1
102
RTVSPropertyOp21
 70
     1
102
RTVSPropertyOp22
 70
     1
102
RTVSPropertyOp23
 70
     1
102
RTVSPropertyOp24
 70
     1
102
RTVSPropertyOp25
 70
     1
102
RTVSPropertyOp26
 70
     1
102
RTVSPropertyOp27
 70
     1
102
RTVSPropertyOp28
 70
     1
102
RTVSPropertyOp29
 70
     1
102
RTVSPropertyOp30
 70
     1
102
RTVSPropertyOp31
 70
     1
102
RTVSPropertyOp32
 70
     1
  0
XRECORD
  5
211
102
{ACAD_REACTORS
330
210
102
}
330
210
100
AcDbXrecord
280
     1
102
RTVSPropertyOp0
 70
     1
102
RTVSPropertyOp1
 70
     1
102
RTVSPropertyOp2
 70
     1
102
RTVSPropertyOp3
 70
     1
102
RTVSPropertyOp4
 70
     1
102
RTVSPropertyOp5
 70
     1
102
RTVSPropertyOp6
 70
     1
102
RTVSPropertyOp7
 70
     1
102
RTVSPropertyOp8
 70
     1
102
RTVSPropertyOp9
 70
     1
102
RTVSPropertyOp10
 70
     1
102
RTVSPropertyOp11
 70
     1
102
RTVSPropertyOp12
 70
     1
102
RTVSPropertyOp13
 70
     1
102
RTVSPropertyOp14
 70
     1
102
RTVSPropertyOp15
 70
     1
102
RTVSPropertyOp16
 70
     1
102
RTVSPropertyOp17
 70
     1
102
RTVSPropertyOp18
 70
     1
102
RTVSPropertyOp19
 70
     1
102
RTVSPropertyOp20
 70
     1
102
RTVSPropertyOp21
 70
     1
102
RTVSPropertyOp22
 70
     1
102
RTVSPropertyOp23
 70
     1
102
RTVSPropertyOp24
 70
     1
102
RTVSPropertyOp25
 70
     1
102
RTVSPropertyOp26
 70
     1
102
RTVSPropertyOp27
 70
     1
102
RTVSPropertyOp28
 70
     1
102
RTVSPropertyOp29
 70
     1
102
RTVSPropertyOp30
 70
     1
102
RTVSPropertyOp31
 70
     1
102
RTVSPropertyOp32
 70
     1
  0
XRECORD
  5
213
102
{ACAD_REACTORS
330
212
102
}
330
212
100
AcDbXrecord
280
     1
102
RTVSPropertyOp0
 70
     1
102
RTVSPropertyOp1
 70
     1
102
RTVSPropertyOp2
 70
     1
102
RTVSPropertyOp3
 70
     1
102
RTVSPropertyOp4
 70
     1
102
RTVSPropertyOp5
 70
     1
102
RTVSPropertyOp6
 70
     1
102
RTVSPropertyOp7
 70
     1
102
RTVSPropertyOp8
 70
     1
102
RTVSPropertyOp9
 70
     1
102
RTVSPropertyOp10
 70
     1
102
RTVSPropertyOp11
 70
     1
102
RTVSPropertyOp12
 70
     1
102
RTVSPropertyOp13
 70
     1
102
RTVSPropertyOp14
 70
     1
102
RTVSPropertyOp15
 70
     1
102
RTVSPropertyOp16
 70
     1
102
RTVSPropertyOp17
 70
     1
102
RTVSPropertyOp18
 70
     1
102
RTVSPropertyOp19
 70
     1
102
RTVSPropertyOp20
 70
     1
102
RTVSPropertyOp21
 70
     1
102
RTVSPropertyOp22
 70
     1
102
RTVSPropertyOp23
 70
     1
102
RTVSPropertyOp24
 70
     1
102
RTVSPropertyOp25
 70
     1
102
RTVSPropertyOp26
 70
     1
102
RTVSPropertyOp27
 70
     1
102
RTVSPropertyOp28
 70
     1
102
RTVSPropertyOp29
 70
     1
102
RTVSPropertyOp30
 70
     1
102
RTVSPropertyOp31
 70
     1
102
RTVSPropertyOp32
 70
     1
  0
XRECORD
  5
215
102
{ACAD_REACTORS
330
214
102
}
330
214
100
AcDbXrecord
280
     1
102
RTVSPropertyOp0
 70
     1
102
RTVSPropertyOp1
 70
     1
102
RTVSPropertyOp2
 70
     1
102
RTVSPropertyOp3
 70
     1
102
RTVSPropertyOp4
 70
     1
102
RTVSPropertyOp5
 70
     1
102
RTVSPropertyOp6
 70
     1
102
RTVSPropertyOp7
 70
     1
102
RTVSPropertyOp8
 70
     1
102
RTVSPropertyOp9
 70
     1
102
RTVSPropertyOp10
 70
     1
102
RTVSPropertyOp11
 70
     1
102
RTVSPropertyOp12
 70
     1
102
RTVSPropertyOp13
 70
     1
102
RTVSPropertyOp14
 70
     1
102
RTVSPropertyOp15
 70
     1
102
RTVSPropertyOp16
 70
     1
102
RTVSPropertyOp17
 70
     1
102
RTVSPropertyOp18
 70
     1
102
RTVSPropertyOp19
 70
     1
102
RTVSPropertyOp20
 70
     1
102
RTVSPropertyOp21
 70
     1
102
RTVSPropertyOp22
 70
     1
102
RTVSPropertyOp23
 70
     1
102
RTVSPropertyOp24
 70
     1
102
RTVSPropertyOp25
 70
     1
102
RTVSPropertyOp26
 70
     1
102
RTVSPropertyOp27
 70
     1
102
RTVSPropertyOp28
 70
     1
102
RTVSPropertyOp29
 70
     1
102
RTVSPropertyOp30
 70
     1
102
RTVSPropertyOp31
 70
     1
102
RTVSPropertyOp32
 70
     1
  0
XRECORD
  5
229
102
{ACAD_REACTORS
330
228
102
}
330
228
100
AcDbXrecord
280
     1
102
RTVSPropertyOp0
 70
     1
102
RTVSPropertyOp1
 70
     1
102
RTVSPropertyOp2
 70
     1
102
RTVSPropertyOp3
 70
     1
102
RTVSPropertyOp4
 70
     1
102
RTVSPropertyOp5
 70
     1
102
RTVSPropertyOp6
 70
     1
102
RTVSPropertyOp7
 70
     1
102
RTVSPropertyOp8
 70
     1
102
RTVSPropertyOp9
 70
     1
102
RTVSPropertyOp10
 70
     1
102
RTVSPropertyOp11
 70
     1
102
RTVSPropertyOp12
 70
     1
102
RTVSPropertyOp13
 70
     1
102
RTVSPropertyOp14
 70
     1
102
RTVSPropertyOp15
 70
     1
102
RTVSPropertyOp16
 70
     1
102
RTVSPropertyOp17
 70
     1
102
RTVSPropertyOp18
 70
     1
102
RTVSPropertyOp19
 70
     1
102
RTVSPropertyOp20
 70
     1
102
RTVSPropertyOp21
 70
     1
102
RTVSPropertyOp22
 70
     1
102
RTVSPropertyOp23
 70
     1
102
RTVSPropertyOp24
 70
     1
102
RTVSPropertyOp25
 70
     1
102
RTVSPropertyOp26
 70
     1
102
RTVSPropertyOp27
 70
     1
102
RTVSPropertyOp28
 70
     1
102
RTVSPropertyOp29
 70
     1
102
RTVSPropertyOp30
 70
     1
102
RTVSPropertyOp31
 70
     1
102
RTVSPropertyOp32
 70
     1
  0
XRECORD
  5
21F
102
{ACAD_REACTORS
330
21E
102
}
330
21E
100
AcDbXrecord
280
     1
102
RTVSPropertyOp0
 70
     1
102
RTVSPropertyOp1
 70
     1
102
RTVSPropertyOp2
 70
     1
102
RTVSPropertyOp3
 70
     1
102
RTVSPropertyOp4
 70
     1
102
RTVSPropertyOp5
 70
     1
102
RTVSPropertyOp6
 70
     1
102
RTVSPropertyOp7
 70
     1
102
RTVSPropertyOp8
 70
     1
102
RTVSPropertyOp9
 70
     1
102
RTVSPropertyOp10
 70
     1
102
RTVSPropertyOp11
 70
     1
102
RTVSPropertyOp12
 70
     1
102
RTVSPropertyOp13
 70
     1
102
RTVSPropertyOp14
 70
     1
102
RTVSPropertyOp15
 70
     1
102
RTVSPropertyOp16
 70
     1
102
RTVSPropertyOp17
 70
     1
102
RTVSPropertyOp18
 70
     1
102
RTVSPropertyOp19
 70
     1
102
RTVSPropertyOp20
 70
     1
102
RTVSPropertyOp21
 70
     1
102
RTVSPropertyOp22
 70
     1
102
RTVSPropertyOp23
 70
     1
102
RTVSPropertyOp24
 70
     1
102
RTVSPropertyOp25
 70
     1
102
RTVSPropertyOp26
 70
     1
102
RTVSPropertyOp27
 70
     1
102
RTVSPropertyOp28
 70
     1
102
RTVSPropertyOp29
 70
     1
102
RTVSPropertyOp30
 70
     1
102
RTVSPropertyOp31
 70
     1
102
RTVSPropertyOp32
 70
     1
  0
XRECORD
  5
227
102
{ACAD_REACTORS
330
226
102
}
330
226
100
AcDbXrecord
280
     1
102
RTVSPropertyOp0
 70
     1
102
RTVSPropertyOp1
 70
     1
102
RTVSPropertyOp2
 70
     1
102
RTVSPropertyOp3
 70
     1
102
RTVSPropertyOp4
 70
     1
102
RTVSPropertyOp5
 70
     1
102
RTVSPropertyOp6
 70
     1
102
RTVSPropertyOp7
 70
     1
102
RTVSPropertyOp8
 70
     1
102
RTVSPropertyOp9
 70
     1
102
RTVSPropertyOp10
 70
     1
102
RTVSPropertyOp11
 70
     1
102
RTVSPropertyOp12
 70
     1
102
RTVSPropertyOp13
 70
     1
102
RTVSPropertyOp14
 70
     1
102
RTVSPropertyOp15
 70
     1
102
RTVSPropertyOp16
 70
     1
102
RTVSPropertyOp17
 70
     1
102
RTVSPropertyOp18
 70
     1
102
RTVSPropertyOp19
 70
     1
102
RTVSPropertyOp20
 70
     1
102
RTVSPropertyOp21
 70
     1
102
RTVSPropertyOp22
 70
     1
102
RTVSPropertyOp23
 70
     1
102
RTVSPropertyOp24
 70
     1
102
RTVSPropertyOp25
 70
     1
102
RTVSPropertyOp26
 70
     1
102
RTVSPropertyOp27
 70
     1
102
RTVSPropertyOp28
 70
     1
102
RTVSPropertyOp29
 70
     1
102
RTVSPropertyOp30
 70
     1
102
RTVSPropertyOp31
 70
     1
102
RTVSPropertyOp32
 70
     1
  0
ENDSEC
  0
EOF
