  0
SECTION
  2
HEADER
  9
$ACADVER
  1
AC1021
  9
$ACADMAINTVER
 70
    25
  9
$DWGCODEPAGE
  3
ANSI_1257
  9
$INSBASE
 10
0.0
 20
0.0
 30
0.0
  9
$EXTMIN
 10
-295.5883
 20
-142.9541
 30
0.0
  9
$EXTMAX
 10
294.1415
 20
143.2357
 30
0.0
  9
$LIMMIN
 10
0.0
 20
0.0
  9
$LIMMAX
 10
12.0
 20
9.0
  9
$ORTHOMODE
 70
     0
  9
$REGENMODE
 70
     1
  9
$FILLMODE
 70
     1
  9
$QTEXTMODE
 70
     0
  9
$MIRRTEXT
 70
     1
  9
$LTSCALE
 40
1.0
  9
$ATTMODE
 70
     1
  9
$TEXTSIZE
 40
0.2
  9
$TRACEWID
 40
0.05
  9
$TEXTSTYLE
  7
Standard
  9
$CLAYER
  8
0
  9
$CELTYPE
  6
ByLayer
  9
$CECOLOR
 62
   256
  9
$CELTSCALE
 40
1.0
  9
$DISPSILH
 70
     0
  9
$DIMSCALE
 40
1.0
  9
$DIMASZ
 40
0.18
  9
$DIMEXO
 40
0.0625
  9
$DIMDLI
 40
0.38
  9
$DIMRND
 40
0.0
  9
$DIMDLE
 40
0.0
  9
$DIMEXE
 40
0.18
  9
$DIMTP
 40
0.0
  9
$DIMTM
 40
0.0
  9
$DIMTXT
 40
0.18
  9
$DIMCEN
 40
0.09
  9
$DIMTSZ
 40
0.0
  9
$DIMTOL
 70
     0
  9
$DIMLIM
 70
     0
  9
$DIMTIH
 70
     1
  9
$DIMTOH
 70
     1
  9
$DIMSE1
 70
     0
  9
$DIMSE2
 70
     0
  9
$DIMTAD
 70
     0
  9
$DIMZIN
 70
     0
  9
$DIMBLK
  1

  9
$DIMASO
 70
     1
  9
$DIMSHO
 70
     1
  9
$DIMPOST
  1

  9
$DIMAPOST
  1

  9
$DIMALT
 70
     0
  9
$DIMALTD
 70
     2
  9
$DIMALTF
 40
25.4
  9
$DIMLFAC
 40
1.0
  9
$DIMTOFL
 70
     0
  9
$DIMTVP
 40
0.0
  9
$DIMTIX
 70
     0
  9
$DIMSOXD
 70
     0
  9
$DIMSAH
 70
     0
  9
$DIMBLK1
  1

  9
$DIMBLK2
  1

  9
$DIMSTYLE
  2
Standard
  9
$DIMCLRD
 70
     0
  9
$DIMCLRE
 70
     0
  9
$DIMCLRT
 70
     0
  9
$DIMTFAC
 40
1.0
  9
$DIMGAP
 40
0.09
  9
$DIMJUST
 70
     0
  9
$DIMSD1
 70
     0
  9
$DIMSD2
 70
     0
  9
$DIMTOLJ
 70
     1
  9
$DIMTZIN
 70
     0
  9
$DIMALTZ
 70
     0
  9
$DIMALTTZ
 70
     0
  9
$DIMUPT
 70
     0
  9
$DIMDEC
 70
     4
  9
$DIMTDEC
 70
     4
  9
$DIMALTU
 70
     2
  9
$DIMALTTD
 70
     2
  9
$DIMTXSTY
  7
Standard
  9
$DIMAUNIT
 70
     0
  9
$DIMADEC
 70
     0
  9
$DIMALTRND
 40
0.0
  9
$DIMAZIN
 70
     0
  9
$DIMDSEP
 70
    46
  9
$DIMATFIT
 70
     3
  9
$DIMFRAC
 70
     0
  9
$DIMLDRBLK
  1

  9
$DIMLUNIT
 70
     2
  9
$DIMLWD
 70
    -2
  9
$DIMLWE
 70
    -2
  9
$DIMTMOVE
 70
     0
  9
$DIMFXL
 40
1.0
  9
$DIMFXLON
 70
     0
  9
$DIMJOGANG
 40
0.7853981633974483
  9
$DIMTFILL
 70
     0
  9
$DIMTFILLCLR
 70
     0
  9
$DIMARCSYM
 70
     0
  9
$DIMLTYPE
  6

  9
$DIMLTEX1
  6

  9
$DIMLTEX2
  6

  9
$LUNITS
 70
     2
  9
$LUPREC
 70
     4
  9
$SKETCHINC
 40
0.1
  9
$FILLETRAD
 40
0.5
  9
$AUNITS
 70
     0
  9
$AUPREC
 70
     0
  9
$MENU
  1
.
  9
$ELEVATION
 40
0.0
  9
$PELEVATION
 40
0.0
  9
$THICKNESS
 40
0.0
  9
$LIMCHECK
 70
     0
  9
$CHAMFERA
 40
0.5
  9
$CHAMFERB
 40
0.5
  9
$CHAMFERC
 40
1.0
  9
$CHAMFERD
 40
0.0
  9
$SKPOLY
 70
     0
  9
$TDCREATE
 40
2457006.672046042
  9
$TDUCREATE
 40
2457006.588712709
  9
$TDUPDATE
 40
2457006.672046215
  9
$TDUUPDATE
 40
2457006.588712882
  9
$TDINDWG
 40
0.0000000116
  9
$TDUSRTIMER
 40
0.0000000116
  9
$USRTIMER
 70
     1
  9
$ANGBASE
 50
0.0
  9
$ANGDIR
 70
     0
  9
$PDMODE
 70
     0
  9
$PDSIZE
 40
0.0
  9
$PLINEWID
 40
0.0
  9
$SPLFRAME
 70
     0
  9
$SPLINETYPE
 70
     6
  9
$SPLINESEGS
 70
     8
  9
$HANDSEED
  5
238
  9
$SURFTAB1
 70
     6
  9
$SURFTAB2
 70
     6
  9
$SURFTYPE
 70
     6
  9
$SURFU
 70
     6
  9
$SURFV
 70
     6
  9
$UCSBASE
  2

  9
$UCSNAME
  2

  9
$UCSORG
 10
0.0
 20
0.0
 30
0.0
  9
$UCSXDIR
 10
1.0
 20
0.0
 30
0.0
  9
$UCSYDIR
 10
0.0
 20
1.0
 30
0.0
  9
$UCSORTHOREF
  2

  9
$UCSORTHOVIEW
 70
     0
  9
$UCSORGTOP
 10
0.0
 20
0.0
 30
0.0
  9
$UCSORGBOTTOM
 10
0.0
 20
0.0
 30
0.0
  9
$UCSORGLEFT
 10
0.0
 20
0.0
 30
0.0
  9
$UCSORGRIGHT
 10
0.0
 20
0.0
 30
0.0
  9
$UCSORGFRONT
 10
0.0
 20
0.0
 30
0.0
  9
$UCSORGBACK
 10
0.0
 20
0.0
 30
0.0
  9
$PUCSBASE
  2

  9
$PUCSNAME
  2

  9
$PUCSORG
 10
0.0
 20
0.0
 30
0.0
  9
$PUCSXDIR
 10
1.0
 20
0.0
 30
0.0
  9
$PUCSYDIR
 10
0.0
 20
1.0
 30
0.0
  9
$PUCSORTHOREF
  2

  9
$PUCSORTHOVIEW
 70
     0
  9
$PUCSORGTOP
 10
0.0
 20
0.0
 30
0.0
  9
$PUCSORGBOTTOM
 10
0.0
 20
0.0
 30
0.0
  9
$PUCSORGLEFT
 10
0.0
 20
0.0
 30
0.0
  9
$PUCSORGRIGHT
 10
0.0
 20
0.0
 30
0.0
  9
$PUCSORGFRONT
 10
0.0
 20
0.0
 30
0.0
  9
$PUCSORGBACK
 10
0.0
 20
0.0
 30
0.0
  9
$USERI1
 70
     0
  9
$USERI2
 70
     0
  9
$USERI3
 70
     0
  9
$USERI4
 70
     0
  9
$USERI5
 70
     0
  9
$USERR1
 40
0.0
  9
$USERR2
 40
0.0
  9
$USERR3
 40
0.0
  9
$USERR4
 40
0.0
  9
$USERR5
 40
0.0
  9
$WORLDVIEW
 70
     1
  9
$SHADEDGE
 70
     3
  9
$SHADEDIF
 70
    70
  9
$TILEMODE
 70
     1
  9
$MAXACTVP
 70
    64
  9
$PINSBASE
 10
0.0
 20
0.0
 30
0.0
  9
$PLIMCHECK
 70
     0
  9
$PEXTMIN
 10
1.000000000000000E+20
 20
1.000000000000000E+20
 30
1.000000000000000E+20
  9
$PEXTMAX
 10
-1.000000000000000E+20
 20
-1.000000000000000E+20
 30
-1.000000000000000E+20
  9
$PLIMMIN
 10
0.0
 20
0.0
  9
$PLIMMAX
 10
12.0
 20
9.0
  9
$UNITMODE
 70
     0
  9
$VISRETAIN
 70
     1
  9
$PLINEGEN
 70
     0
  9
$PSLTSCALE
 70
     1
  9
$TREEDEPTH
 70
  3020
  9
$CMLSTYLE
  2
Standard
  9
$CMLJUST
 70
     0
  9
$CMLSCALE
 40
1.0
  9
$PROXYGRAPHICS
 70
     1
  9
$MEASUREMENT
 70
     0
  9
$CELWEIGHT
370
    -1
  9
$ENDCAPS
280
     0
  9
$JOINSTYLE
280
     0
  9
$LWDISPLAY
290
     0
  9
$INSUNITS
 70
     4
  9
$HYPERLINKBASE
  1

  9
$STYLESHEET
  1

  9
$XEDIT
290
     1
  9
$CEPSNTYPE
380
     0
  9
$PSTYLEMODE
290
     1
  9
$FINGERPRINTGUID
  2
{CC908723-509E-43C0-8A55-F7EA930359E9}
  9
$VERSIONGUID
  2
{FAEB1C32-E019-11D5-929B-00C0DF256EC4}
  9
$EXTNAMES
290
     1
  9
$PSVPSCALE
 40
0.0
  9
$OLESTARTUP
290
     0
  9
$SORTENTS
280
   127
  9
$INDEXCTL
280
     0
  9
$HIDETEXT
280
     1
  9
$XCLIPFRAME
290
     0
  9
$HALOGAP
280
     0
  9
$OBSCOLOR
 70
   257
  9
$OBSLTYPE
280
     0
  9
$INTERSECTIONDISPLAY
280
     0
  9
$INTERSECTIONCOLOR
 70
   257
  9
$DIMASSOC
280
     2
  9
$PROJECTNAME
  1

  9
$CAMERADISPLAY
290
     0
  9
$LENSLENGTH
 40
50.0
  9
$CAMERAHEIGHT
 40
0.0
  9
$STEPSPERSEC
 40
2.0
  9
$STEPSIZE
 40
6.0
  9
$3DDWFPREC
 40
2.0
  9
$PSOLWIDTH
 40
0.25
  9
$PSOLHEIGHT
 40
4.0
  9
$LOFTANG1
 40
1.570796326794897
  9
$LOFTANG2
 40
1.570796326794897
  9
$LOFTMAG1
 40
0.0
  9
$LOFTMAG2
 40
0.0
  9
$LOFTPARAM
 70
     7
  9
$LOFTNORMALS
280
     1
  9
$LATITUDE
 40
37.795
  9
$LONGITUDE
 40
-122.394
  9
$NORTHDIRECTION
 40
0.0
  9
$TIMEZONE
 70
 -8000
  9
$LIGHTGLYPHDISPLAY
280
     1
  9
$TILEMODELIGHTSYNCH
280
     1
  9
$SOLIDHIST
280
     1
  9
$SHOWHIST
280
     1
  9
$DWFFRAME
280
     2
  9
$DGNFRAME
280
     2
  9
$REALWORLDSCALE
290
     1
  9
$INTERFERECOLOR
 62
   256
  9
$CSHADOW
280
     0
  9
$SHADOWPLANELOCATION
 40
0.0
  0
ENDSEC
  0
SECTION
  2
CLASSES
  0
CLASS
  1
ACDBDICTIONARYWDFLT
  2
AcDbDictionaryWithDefault
  3
ObjectDBX Classes
 90
        0
 91
        4
280
     0
281
     0
  0
CLASS
  1
VISUALSTYLE
  2
AcDbVisualStyle
  3
ObjectDBX Classes
 90
     4095
 91
        4
280
     0
281
     0
  0
CLASS
  1
MATERIAL
  2
AcDbMaterial
  3
ObjectDBX Classes
 90
     1153
 91
        4
280
     0
281
     0
  0
ENDSEC
  0
SECTION
  2
TABLES
  0
TABLE
  2
VPORT
  5
8
330
0
100
AcDbSymbolTable
 70
     1
  0
VPORT
  5
29
330
8
100
AcDbSymbolTableRecord
100
AcDbViewportTableRecord
  2
*Active
 70
     0
 10
0.0
 20
0.0
 11
1.0
 21
1.0
 12
10.42990654205607
 22
4.5
 13
0.0
 23
0.0
 14
0.5
 24
0.5
 15
0.5
 25
0.5
 16
0.0
 26
0.0
 36
1.0
 17
0.0
 27
0.0
 37
0.0
 40
9.0
 41
1.972972972850329
 42
50.0
 43
0.0
 44
0.0
 50
0.0
 51
0.0
 71
     0
 72
   100
 73
     1
 74
     3
 75
     0
 76
     0
 77
     0
 78
     0
281
     0
 65
     1
110
0.0
120
0.0
130
0.0
111
1.0
121
0.0
131
0.0
112
0.0
122
1.0
132
0.0
 79
     0
146
0.0
 60
     3
 61
     5
292
     1
282
     1
141
0.0
142
0.0
 63
   250
  0
ENDTAB
  0
TABLE
  2
LTYPE
  5
5
330
0
100
AcDbSymbolTable
 70
     1
  0
LTYPE
  5
14
330
5
100
AcDbSymbolTableRecord
100
AcDbLinetypeTableRecord
  2
ByBlock
 70
     0
  3

 72
    65
 73
     0
 40
0.0
  0
LTYPE
  5
15
330
5
100
AcDbSymbolTableRecord
100
AcDbLinetypeTableRecord
  2
ByLayer
 70
     0
  3

 72
    65
 73
     0
 40
0.0
  0
LTYPE
  5
16
330
5
100
AcDbSymbolTableRecord
100
AcDbLinetypeTableRecord
  2
Continuous
 70
     0
  3
Solid line
 72
    65
 73
     0
 40
0.0
  0
ENDTAB
  0
TABLE
  2
LAYER
  5
2
330
0
100
AcDbSymbolTable
 70
     2
  0
LAYER
  5
10
330
2
100
AcDbSymbolTableRecord
100
AcDbLayerTableRecord
  2
0
 70
     0
 62
     7
  6
Continuous
370
    -3
390
F
347
3E
  0
LAYER
  5
40
330
2
100
AcDbSymbolTableRecord
100
AcDbLayerTableRecord
  2
Layer 1
 70
     0
 62
     7
  6
Continuous
370
    -3
390
F
347
3E
  0
ENDTAB
  0
TABLE
  2
STYLE
  5
3
330
0
100
AcDbSymbolTable
 70
     1
  0
STYLE
  5
11
330
3
100
AcDbSymbolTableRecord
100
AcDbTextStyleTableRecord
  2
Standard
 70
     0
 40
0.0
 41
1.0
 50
0.0
 71
     0
 42
0.2
  3
txt
  4

  0
ENDTAB
  0
TABLE
  2
VIEW
  5
6
330
0
100
AcDbSymbolTable
 70
     0
  0
ENDTAB
  0
TABLE
  2
UCS
  5
7
330
0
100
AcDbSymbolTable
 70
     0
  0
ENDTAB
  0
TABLE
  2
APPID
  5
9
330
0
100
AcDbSymbolTable
 70
     2
  0
APPID
  5
12
330
9
100
AcDbSymbolTableRecord
100
AcDbRegAppTableRecord
  2
ACAD
 70
     0
  0
APPID
  5
3F
330
9
100
AcDbSymbolTableRecord
100
AcDbRegAppTableRecord
  2
ODA
 70
     0
  0
ENDTAB
  0
TABLE
  2
DIMSTYLE
  5
A
330
0
100
AcDbSymbolTable
 70
     1
100
AcDbDimStyleTable
  0
DIMSTYLE
105
27
330
A
100
AcDbSymbolTableRecord
100
AcDbDimStyleTableRecord
  2
Standard
 70
     0
178
     0
340
11
  0
ENDTAB
  0
TABLE
  2
BLOCK_RECORD
  5
1
330
0
100
AcDbSymbolTable
 70
     1
  0
BLOCK_RECORD
  5
1F
330
1
100
AcDbSymbolTableRecord
100
AcDbBlockTableRecord
  2
*Model_Space
340
22
 70
     0
280
     1
281
     0
  0
BLOCK_RECORD
  5
1B
330
1
100
AcDbSymbolTableRecord
100
AcDbBlockTableRecord
  2
*Paper_Space
340
1E
 70
     0
280
     1
281
     0
  0
BLOCK_RECORD
  5
23
330
1
100
AcDbSymbolTableRecord
100
AcDbBlockTableRecord
  2
*Paper_Space0
340
26
 70
     0
280
     1
281
     0
  0
ENDTAB
  0
ENDSEC
  0
SECTION
  2
BLOCKS
  0
BLOCK
  5
20
330
1F
100
AcDbEntity
  8
0
100
AcDbBlockBegin
  2
*Model_Space
 70
     0
 10
0.0
 20
0.0
 30
0.0
  3
*Model_Space
  1

  0
ENDBLK
  5
21
330
1F
100
AcDbEntity
  8
0
100
AcDbBlockEnd
  0
BLOCK
  5
1C
330
1B
100
AcDbEntity
 67
     1
  8
0
100
AcDbBlockBegin
  2
*Paper_Space
 70
     0
 10
0.0
 20
0.0
 30
0.0
  3
*Paper_Space
  1

  0
ENDBLK
  5
1D
330
1B
100
AcDbEntity
 67
     1
  8
0
100
AcDbBlockEnd
  0
BLOCK
  5
24
330
23
100
AcDbEntity
  8
0
100
AcDbBlockBegin
  2
*Paper_Space0
 70
     0
 10
0.0
 20
0.0
 30
0.0
  3
*Paper_Space0
  1

  0
ENDBLK
  5
25
330
23
100
AcDbEntity
  8
0
100
AcDbBlockEnd
  0
ENDSEC
  0
SECTION
  2
ENTITIES
  0
SPLINE
  5
41
330
1F
100
AcDbEntity
  8
Layer 1
370
    15
100
AcDbSpline
210
0.0
220
0.0
230
1.0
 70
    11
 71
     3
 72
    20
 73
    16
 74
     0
 42
0.0000000001
 43
0.0000000001
 12
1.0
 22
0.0
 32
0.0
 13
1.0
 23
0.0
 33
0.0
 40
0.0
 40
0.0
 40
0.0
 40
0.0
 40
0.2
 40
0.2
 40
0.2
 40
0.2
 40
0.4
 40
0.4
 40
0.4
 40
0.4
 40
0.6
 40
0.6
 40
0.6
 40
0.6
 40
1.0
 40
1.0
 40
1.0
 40
1.0
 10
-190.4685
 20
123.098
 30
0.0
 10
-190.4685
 20
123.8988
 30
0.0
 10
-189.8193
 20
124.548
 30
0.0
 10
-189.0185
 20
124.548
 30
0.0
 10
-189.0185
 20
124.548
 30
0.0
 10
-188.2177
 20
124.548
 30
0.0
 10
-187.5685
 20
123.8988
 30
0.0
 10
-187.5685
 20
123.098
 30
0.0
 10
-187.5685
 20
123.098
 30
0.0
 10
-187.5685
 20
122.2972
 30
0.0
 10
-188.2177
 20
121.648
 30
0.0
 10
-189.0185
 20
121.648
 30
0.0
 10
-189.0185
 20
121.648
 30
0.0
 10
-189.8193
 20
121.648
 30
0.0
 10
-190.4685
 20
122.2971
 30
0.0
 10
-190.4685
 20
123.098
 30
0.0
  0
SPLINE
  5
42
330
1F
100
AcDbEntity
  8
Layer 1
370
    15
100
AcDbSpline
210
0.0
220
0.0
230
1.0
 70
    11
 71
     3
 72
    20
 73
    16
 74
     0
 42
0.0000000001
 43
0.0000000001
 12
1.0
 22
0.0
 32
0.0
 13
1.0
 23
0.0
 33
0.0
 40
0.0
 40
0.0
 40
0.0
 40
0.0
 40
0.2
 40
0.2
 40
0.2
 40
0.2
 40
0.4
 40
0.4
 40
0.4
 40
0.4
 40
0.6
 40
0.6
 40
0.6
 40
0.6
 40
1.0
 40
1.0
 40
1.0
 40
1.0
 10
-132.4764
 20
131.7964
 30
0.0
 10
-132.4764
 20
132.5972
 30
0.0
 10
-131.8272
 20
133.2464
 30
0.0
 10
-131.0264
 20
133.2464
 30
0.0
 10
-131.0264
 20
133.2464
 30
0.0
 10
-130.2256
 20
133.2464
 30
0.0
 10
-129.5764
 20
132.5972
 30
0.0
 10
-129.5764
 20
131.7964
 30
0.0
 10
-129.5764
 20
131.7964
 30
0.0
 10
-129.5764
 20
130.9956
 30
0.0
 10
-130.2256
 20
130.3464
 30
0.0
 10
-131.0264
 20
130.3464
 30
0.0
 10
-131.0264
 20
130.3464
 30
0.0
 10
-131.8272
 20
130.3464
 30
0.0
 10
-132.4764
 20
130.9956
 30
0.0
 10
-132.4764
 20
131.7964
 30
0.0
  0
SPLINE
  5
43
330
1F
100
AcDbEntity
  8
Layer 1
370
    15
100
AcDbSpline
210
0.0
220
0.0
230
1.0
 70
    11
 71
     3
 72
    20
 73
    16
 74
     0
 42
0.0000000001
 43
0.0000000001
 12
1.0
 22
0.0
 32
0.0
 13
1.0
 23
0.0
 33
0.0
 40
0.0
 40
0.0
 40
0.0
 40
0.0
 40
0.2
 40
0.2
 40
0.2
 40
0.2
 40
0.4
 40
0.4
 40
0.4
 40
0.4
 40
0.6
 40
0.6
 40
0.6
 40
0.6
 40
1.0
 40
1.0
 40
1.0
 40
1.0
 10
-45.8835
 20
136.1608
 30
0.0
 10
-45.8835
 20
136.9616
 30
0.0
 10
-45.2343
 20
137.6108
 30
0.0
 10
-44.4335
 20
137.6108
 30
0.0
 10
-44.4335
 20
137.6108
 30
0.0
 10
-43.6327
 20
137.6108
 30
0.0
 10
-42.9835
 20
136.9616
 30
0.0
 10
-42.9835
 20
136.1608
 30
0.0
 10
-42.9835
 20
136.1608
 30
0.0
 10
-42.9835
 20
135.36
 30
0.0
 10
-43.6327
 20
134.7108
 30
0.0
 10
-44.4335
 20
134.7108
 30
0.0
 10
-44.4335
 20
134.7108
 30
0.0
 10
-45.2343
 20
134.7108
 30
0.0
 10
-45.8835
 20
135.36
 30
0.0
 10
-45.8835
 20
136.1608
 30
0.0
  0
SPLINE
  5
44
330
1F
100
AcDbEntity
  8
Layer 1
370
    15
100
AcDbSpline
210
0.0
220
0.0
230
1.0
 70
    11
 71
     3
 72
    20
 73
    16
 74
     0
 42
0.0000000001
 43
0.0000000001
 12
1.0
 22
0.0
 32
0.0
 13
1.0
 23
0.0
 33
0.0
 40
0.0
 40
0.0
 40
0.0
 40
0.0
 40
0.2
 40
0.2
 40
0.2
 40
0.2
 40
0.4
 40
0.4
 40
0.4
 40
0.4
 40
0.6
 40
0.6
 40
0.6
 40
0.6
 40
1.0
 40
1.0
 40
1.0
 40
1.0
 10
12.1165
 20
136.1608
 30
0.0
 10
12.1165
 20
136.9616
 30
0.0
 10
12.7657
 20
137.6108
 30
0.0
 10
13.5665
 20
137.6108
 30
0.0
 10
13.5665
 20
137.6108
 30
0.0
 10
14.3673
 20
137.6108
 30
0.0
 10
15.0165
 20
136.9616
 30
0.0
 10
15.0165
 20
136.1608
 30
0.0
 10
15.0165
 20
136.1608
 30
0.0
 10
15.0165
 20
135.36
 30
0.0
 10
14.3673
 20
134.7108
 30
0.0
 10
13.5665
 20
134.7108
 30
0.0
 10
13.5665
 20
134.7108
 30
0.0
 10
12.7657
 20
134.7108
 30
0.0
 10
12.1165
 20
135.36
 30
0.0
 10
12.1165
 20
136.1608
 30
0.0
  0
SPLINE
  5
45
330
1F
100
AcDbEntity
  8
Layer 1
370
    15
100
AcDbSpline
210
0.0
220
0.0
230
1.0
 70
    11
 71
     3
 72
    20
 73
    16
 74
     0
 42
0.0000000001
 43
0.0000000001
 12
1.0
 22
0.0
 32
0.0
 13
1.0
 23
0.0
 33
0.0
 40
0.0
 40
0.0
 40
0.0
 40
0.0
 40
0.2
 40
0.2
 40
0.2
 40
0.2
 40
0.4
 40
0.4
 40
0.4
 40
0.4
 40
0.6
 40
0.6
 40
0.6
 40
0.6
 40
1.0
 40
1.0
 40
1.0
 40
1.0
 10
70.1165
 20
136.1608
 30
0.0
 10
70.1165
 20
136.9616
 30
0.0
 10
70.7657
 20
137.6108
 30
0.0
 10
71.5665
 20
137.6108
 30
0.0
 10
71.5665
 20
137.6108
 30
0.0
 10
72.3673
 20
137.6108
 30
0.0
 10
73.0165
 20
136.9616
 30
0.0
 10
73.0165
 20
136.1608
 30
0.0
 10
73.0165
 20
136.1608
 30
0.0
 10
73.0165
 20
135.36
 30
0.0
 10
72.3673
 20
134.7108
 30
0.0
 10
71.5665
 20
134.7108
 30
0.0
 10
71.5665
 20
134.7108
 30
0.0
 10
70.7657
 20
134.7108
 30
0.0
 10
70.1165
 20
135.36
 30
0.0
 10
70.1165
 20
136.1608
 30
0.0
  0
SPLINE
  5
46
330
1F
100
AcDbEntity
  8
Layer 1
370
    15
100
AcDbSpline
210
0.0
220
0.0
230
1.0
 70
    11
 71
     3
 72
    20
 73
    16
 74
     0
 42
0.0000000001
 43
0.0000000001
 12
1.0
 22
0.0
 32
0.0
 13
1.0
 23
0.0
 33
0.0
 40
0.0
 40
0.0
 40
0.0
 40
0.0
 40
0.2
 40
0.2
 40
0.2
 40
0.2
 40
0.4
 40
0.4
 40
0.4
 40
0.4
 40
0.6
 40
0.6
 40
0.6
 40
0.6
 40
1.0
 40
1.0
 40
1.0
 40
1.0
 10
128.1165
 20
136.1608
 30
0.0
 10
128.1165
 20
136.9616
 30
0.0
 10
128.7657
 20
137.6108
 30
0.0
 10
129.5665
 20
137.6108
 30
0.0
 10
129.5665
 20
137.6108
 30
0.0
 10
130.3673
 20
137.6108
 30
0.0
 10
131.0165
 20
136.9616
 30
0.0
 10
131.0165
 20
136.1608
 30
0.0
 10
131.0165
 20
136.1608
 30
0.0
 10
131.0165
 20
135.36
 30
0.0
 10
130.3673
 20
134.7108
 30
0.0
 10
129.5665
 20
134.7108
 30
0.0
 10
129.5665
 20
134.7108
 30
0.0
 10
128.7657
 20
134.7108
 30
0.0
 10
128.1165
 20
135.36
 30
0.0
 10
128.1165
 20
136.1608
 30
0.0
  0
SPLINE
  5
47
330
1F
100
AcDbEntity
  8
Layer 1
370
    15
100
AcDbSpline
210
0.0
220
0.0
230
1.0
 70
    11
 71
     3
 72
    20
 73
    16
 74
     0
 42
0.0000000001
 43
0.0000000001
 12
1.0
 22
0.0
 32
0.0
 13
1.0
 23
0.0
 33
0.0
 40
0.0
 40
0.0
 40
0.0
 40
0.0
 40
0.2
 40
0.2
 40
0.2
 40
0.2
 40
0.4
 40
0.4
 40
0.4
 40
0.4
 40
0.6
 40
0.6
 40
0.6
 40
0.6
 40
1.0
 40
1.0
 40
1.0
 40
1.0
 10
186.1165
 20
136.1608
 30
0.0
 10
186.1165
 20
136.9616
 30
0.0
 10
186.7657
 20
137.6108
 30
0.0
 10
187.5665
 20
137.6108
 30
0.0
 10
187.5665
 20
137.6108
 30
0.0
 10
188.3673
 20
137.6108
 30
0.0
 10
189.0165
 20
136.9616
 30
0.0
 10
189.0165
 20
136.1608
 30
0.0
 10
189.0165
 20
136.1608
 30
0.0
 10
189.0165
 20
135.36
 30
0.0
 10
188.3673
 20
134.7108
 30
0.0
 10
187.5665
 20
134.7108
 30
0.0
 10
187.5665
 20
134.7108
 30
0.0
 10
186.7657
 20
134.7108
 30
0.0
 10
186.1165
 20
135.36
 30
0.0
 10
186.1165
 20
136.1608
 30
0.0
  0
SPLINE
  5
48
330
1F
100
AcDbEntity
  8
Layer 1
370
    15
100
AcDbSpline
210
0.0
220
0.0
230
1.0
 70
    11
 71
     3
 72
    20
 73
    16
 74
     0
 42
0.0000000001
 43
0.0000000001
 12
1.0
 22
0.0
 32
0.0
 13
1.0
 23
0.0
 33
0.0
 40
0.0
 40
0.0
 40
0.0
 40
0.0
 40
0.2
 40
0.2
 40
0.2
 40
0.2
 40
0.4
 40
0.4
 40
0.4
 40
0.4
 40
0.6
 40
0.6
 40
0.6
 40
0.6
 40
1.0
 40
1.0
 40
1.0
 40
1.0
 10
244.1165
 20
136.1608
 30
0.0
 10
244.1165
 20
136.9616
 30
0.0
 10
244.7657
 20
137.6108
 30
0.0
 10
245.5665
 20
137.6108
 30
0.0
 10
245.5665
 20
137.6108
 30
0.0
 10
246.3673
 20
137.6108
 30
0.0
 10
247.0165
 20
136.9616
 30
0.0
 10
247.0165
 20
136.1608
 30
0.0
 10
247.0165
 20
136.1608
 30
0.0
 10
247.0165
 20
135.36
 30
0.0
 10
246.3673
 20
134.7108
 30
0.0
 10
245.5665
 20
134.7108
 30
0.0
 10
245.5665
 20
134.7108
 30
0.0
 10
244.7657
 20
134.7108
 30
0.0
 10
244.1165
 20
135.36
 30
0.0
 10
244.1165
 20
136.1608
 30
0.0
  0
SPLINE
  5
49
330
1F
100
AcDbEntity
  8
Layer 1
370
    15
100
AcDbSpline
210
0.0
220
0.0
230
1.0
 70
    11
 71
     3
 72
    20
 73
    16
 74
     0
 42
0.0000000001
 43
0.0000000001
 12
1.0
 22
0.0
 32
0.0
 13
1.0
 23
0.0
 33
0.0
 40
0.0
 40
0.0
 40
0.0
 40
0.0
 40
0.2
 40
0.2
 40
0.2
 40
0.2
 40
0.4
 40
0.4
 40
0.4
 40
0.4
 40
0.6
 40
0.6
 40
0.6
 40
0.6
 40
1.0
 40
1.0
 40
1.0
 40
1.0
 10
-118.0927
 20
56.3853
 30
0.0
 10
-118.0927
 20
57.1214
 30
0.0
 10
-117.496
 20
57.7181
 30
0.0
 10
-116.7599
 20
57.7181
 30
0.0
 10
-116.7599
 20
57.7181
 30
0.0
 10
-116.0238
 20
57.7181
 30
0.0
 10
-115.4271
 20
57.1214
 30
0.0
 10
-115.4271
 20
56.3853
 30
0.0
 10
-115.4271
 20
56.3853
 30
0.0
 10
-115.4271
 20
55.6493
 30
0.0
 10
-116.0238
 20
55.0526
 30
0.0
 10
-116.7599
 20
55.0526
 30
0.0
 10
-116.7599
 20
55.0526
 30
0.0
 10
-117.4959
 20
55.0526
 30
0.0
 10
-118.0927
 20
55.6492
 30
0.0
 10
-118.0927
 20
56.3853
 30
0.0
  0
SPLINE
  5
4A
330
1F
100
AcDbEntity
  8
Layer 1
370
    15
100
AcDbSpline
210
0.0
220
0.0
230
1.0
 70
    11
 71
     3
 72
    20
 73
    16
 74
     0
 42
0.0000000001
 43
0.0000000001
 12
1.0
 22
0.0
 32
0.0
 13
1.0
 23
0.0
 33
0.0
 40
0.0
 40
0.0
 40
0.0
 40
0.0
 40
0.2
 40
0.2
 40
0.2
 40
0.2
 40
0.4
 40
0.4
 40
0.4
 40
0.4
 40
0.6
 40
0.6
 40
0.6
 40
0.6
 40
1.0
 40
1.0
 40
1.0
 40
1.0
 10
-147.1965
 20
60.7331
 30
0.0
 10
-147.1965
 20
61.5339
 30
0.0
 10
-146.5473
 20
62.1831
 30
0.0
 10
-145.7465
 20
62.1831
 30
0.0
 10
-145.7465
 20
62.1831
 30
0.0
 10
-144.9457
 20
62.1831
 30
0.0
 10
-144.2965
 20
61.5339
 30
0.0
 10
-144.2965
 20
60.7331
 30
0.0
 10
-144.2965
 20
60.7331
 30
0.0
 10
-144.2965
 20
59.9323
 30
0.0
 10
-144.9457
 20
59.2831
 30
0.0
 10
-145.7465
 20
59.2831
 30
0.0
 10
-145.7465
 20
59.2831
 30
0.0
 10
-146.5473
 20
59.2831
 30
0.0
 10
-147.1965
 20
59.9323
 30
0.0
 10
-147.1965
 20
60.7331
 30
0.0
  0
SPLINE
  5
4B
330
1F
100
AcDbEntity
  8
Layer 1
370
    15
100
AcDbSpline
210
0.0
220
0.0
230
1.0
 70
    11
 71
     3
 72
    20
 73
    16
 74
     0
 42
0.0000000001
 43
0.0000000001
 12
1.0
 22
0.0
 32
0.0
 13
1.0
 23
0.0
 33
0.0
 40
0.0
 40
0.0
 40
0.0
 40
0.0
 40
0.2
 40
0.2
 40
0.2
 40
0.2
 40
0.4
 40
0.4
 40
0.4
 40
0.4
 40
0.6
 40
0.6
 40
0.6
 40
0.6
 40
1.0
 40
1.0
 40
1.0
 40
1.0
 10
-60.1291
 20
54.1608
 30
0.0
 10
-60.1291
 20
54.9023
 30
0.0
 10
-59.528
 20
55.5033
 30
0.0
 10
-58.7866
 20
55.5033
 30
0.0
 10
-58.7866
 20
55.5033
 30
0.0
 10
-58.0451
 20
55.5033
 30
0.0
 10
-57.4441
 20
54.9023
 30
0.0
 10
-57.4441
 20
54.1608
 30
0.0
 10
-57.4441
 20
54.1608
 30
0.0
 10
-57.4441
 20
53.4194
 30
0.0
 10
-58.0451
 20
52.8183
 30
0.0
 10
-58.7866
 20
52.8183
 30
0.0
 10
-58.7866
 20
52.8183
 30
0.0
 10
-59.528
 20
52.8183
 30
0.0
 10
-60.1291
 20
53.4193
 30
0.0
 10
-60.1291
 20
54.1608
 30
0.0
  0
SPLINE
  5
4C
330
1F
100
AcDbEntity
  8
Layer 1
370
    15
100
AcDbSpline
210
0.0
220
0.0
230
1.0
 70
    11
 71
     3
 72
    20
 73
    16
 74
     0
 42
0.0000000001
 43
0.0000000001
 12
1.0
 22
0.0
 32
0.0
 13
1.0
 23
0.0
 33
0.0
 40
0.0
 40
0.0
 40
0.0
 40
0.0
 40
0.2
 40
0.2
 40
0.2
 40
0.2
 40
0.4
 40
0.4
 40
0.4
 40
0.4
 40
0.6
 40
0.6
 40
0.6
 40
0.6
 40
1.0
 40
1.0
 40
1.0
 40
1.0
 10
-2.1753
 20
54.1608
 30
0.0
 10
-2.1753
 20
54.913
 30
0.0
 10
-1.5655
 20
55.5228
 30
0.0
 10
-0.8133
 20
55.5228
 30
0.0
 10
-0.8133
 20
55.5228
 30
0.0
 10
-0.0611
 20
55.5228
 30
0.0
 10
0.5487
 20
54.913
 30
0.0
 10
0.5487
 20
54.1608
 30
0.0
 10
0.5487
 20
54.1608
 30
0.0
 10
0.5487
 20
53.4086
 30
0.0
 10
-0.0611
 20
52.7988
 30
0.0
 10
-0.8133
 20
52.7988
 30
0.0
 10
-0.8133
 20
52.7988
 30
0.0
 10
-1.5655
 20
52.7988
 30
0.0
 10
-2.1753
 20
53.4086
 30
0.0
 10
-2.1753
 20
54.1608
 30
0.0
  0
SPLINE
  5
4D
330
1F
100
AcDbEntity
  8
Layer 1
370
    15
100
AcDbSpline
210
0.0
220
0.0
230
1.0
 70
    11
 71
     3
 72
    20
 73
    16
 74
     0
 42
0.0000000001
 43
0.0000000001
 12
1.0
 22
0.0
 32
0.0
 13
1.0
 23
0.0
 33
0.0
 40
0.0
 40
0.0
 40
0.0
 40
0.0
 40
0.2
 40
0.2
 40
0.2
 40
0.2
 40
0.4
 40
0.4
 40
0.4
 40
0.4
 40
0.6
 40
0.6
 40
0.6
 40
0.6
 40
1.0
 40
1.0
 40
1.0
 40
1.0
 10
55.7784
 20
54.1608
 30
0.0
 10
55.7784
 20
54.9238
 30
0.0
 10
56.397
 20
55.5424
 30
0.0
 10
57.16
 20
55.5424
 30
0.0
 10
57.16
 20
55.5424
 30
0.0
 10
57.923
 20
55.5424
 30
0.0
 10
58.5415
 20
54.9238
 30
0.0
 10
58.5415
 20
54.1608
 30
0.0
 10
58.5415
 20
54.1608
 30
0.0
 10
58.5415
 20
53.3978
 30
0.0
 10
57.923
 20
52.7792
 30
0.0
 10
57.16
 20
52.7792
 30
0.0
 10
57.16
 20
52.7792
 30
0.0
 10
56.397
 20
52.7792
 30
0.0
 10
55.7784
 20
53.3978
 30
0.0
 10
55.7784
 20
54.1608
 30
0.0
  0
SPLINE
  5
4E
330
1F
100
AcDbEntity
  8
Layer 1
370
    15
100
AcDbSpline
210
0.0
220
0.0
230
1.0
 70
    11
 71
     3
 72
    20
 73
    16
 74
     0
 42
0.0000000001
 43
0.0000000001
 12
1.0
 22
0.0
 32
0.0
 13
1.0
 23
0.0
 33
0.0
 40
0.0
 40
0.0
 40
0.0
 40
0.0
 40
0.2
 40
0.2
 40
0.2
 40
0.2
 40
0.4
 40
0.4
 40
0.4
 40
0.4
 40
0.6
 40
0.6
 40
0.6
 40
0.6
 40
1.0
 40
1.0
 40
1.0
 40
1.0
 10
113.7322
 20
54.1608
 30
0.0
 10
113.7322
 20
54.9346
 30
0.0
 10
114.3595
 20
55.5619
 30
0.0
 10
115.1333
 20
55.5619
 30
0.0
 10
115.1333
 20
55.5619
 30
0.0
 10
115.9071
 20
55.5619
 30
0.0
 10
116.5344
 20
54.9346
 30
0.0
 10
116.5344
 20
54.1608
 30
0.0
 10
116.5344
 20
54.1608
 30
0.0
 10
116.5344
 20
53.387
 30
0.0
 10
115.9071
 20
52.7597
 30
0.0
 10
115.1333
 20
52.7597
 30
0.0
 10
115.1333
 20
52.7597
 30
0.0
 10
114.3595
 20
52.7597
 30
0.0
 10
113.7322
 20
53.387
 30
0.0
 10
113.7322
 20
54.1608
 30
0.0
  0
SPLINE
  5
4F
330
1F
100
AcDbEntity
  8
Layer 1
370
    15
100
AcDbSpline
210
0.0
220
0.0
230
1.0
 70
    11
 71
     3
 72
    20
 73
    16
 74
     0
 42
0.0000000001
 43
0.0000000001
 12
1.0
 22
0.0
 32
0.0
 13
1.0
 23
0.0
 33
0.0
 40
0.0
 40
0.0
 40
0.0
 40
0.0
 40
0.2
 40
0.2
 40
0.2
 40
0.2
 40
0.4
 40
0.4
 40
0.4
 40
0.4
 40
0.6
 40
0.6
 40
0.6
 40
0.6
 40
1.0
 40
1.0
 40
1.0
 40
1.0
 10
171.6859
 20
54.1608
 30
0.0
 10
171.6859
 20
54.9454
 30
0.0
 10
172.322
 20
55.5814
 30
0.0
 10
173.1066
 20
55.5814
 30
0.0
 10
173.1066
 20
55.5814
 30
0.0
 10
173.8912
 20
55.5814
 30
0.0
 10
174.5272
 20
54.9454
 30
0.0
 10
174.5272
 20
54.1608
 30
0.0
 10
174.5272
 20
54.1608
 30
0.0
 10
174.5272
 20
53.3762
 30
0.0
 10
173.8912
 20
52.7402
 30
0.0
 10
173.1066
 20
52.7402
 30
0.0
 10
173.1066
 20
52.7402
 30
0.0
 10
172.322
 20
52.7401
 30
0.0
 10
171.6859
 20
53.3762
 30
0.0
 10
171.6859
 20
54.1608
 30
0.0
  0
SPLINE
  5
50
330
1F
100
AcDbEntity
  8
Layer 1
370
    15
100
AcDbSpline
210
0.0
220
0.0
230
1.0
 70
    11
 71
     3
 72
    20
 73
    16
 74
     0
 42
0.0000000001
 43
0.0000000001
 12
1.0
 22
0.0
 32
0.0
 13
1.0
 23
0.0
 33
0.0
 40
0.0
 40
0.0
 40
0.0
 40
0.0
 40
0.2
 40
0.2
 40
0.2
 40
0.2
 40
0.4
 40
0.4
 40
0.4
 40
0.4
 40
0.6
 40
0.6
 40
0.6
 40
0.6
 40
1.0
 40
1.0
 40
1.0
 40
1.0
 10
229.6396
 20
54.1608
 30
0.0
 10
229.6396
 20
54.9562
 30
0.0
 10
230.2844
 20
55.601
 30
0.0
 10
231.0799
 20
55.601
 30
0.0
 10
231.0799
 20
55.601
 30
0.0
 10
231.8753
 20
55.601
 30
0.0
 10
232.5201
 20
54.9562
 30
0.0
 10
232.5201
 20
54.1608
 30
0.0
 10
232.5201
 20
54.1608
 30
0.0
 10
232.5201
 20
53.3654
 30
0.0
 10
231.8753
 20
52.7206
 30
0.0
 10
231.0799
 20
52.7206
 30
0.0
 10
231.0799
 20
52.7206
 30
0.0
 10
230.2845
 20
52.7206
 30
0.0
 10
229.6396
 20
53.3654
 30
0.0
 10
229.6396
 20
54.1608
 30
0.0
  0
SPLINE
  5
51
330
1F
100
AcDbEntity
  8
Layer 1
370
    15
100
AcDbSpline
210
0.0
220
0.0
230
1.0
 70
    24
 71
     3
 72
     8
 73
     4
 74
     0
 42
0.0000000001
 43
0.0000000001
 12
1.0
 22
0.0
 32
0.0
 13
1.0
 23
0.0
 33
0.0
 40
0.0
 40
0.0
 40
0.0
 40
0.0
 40
1.0
 40
1.0
 40
1.0
 40
1.0
 10
294.0665
 20
143.1607
 30
0.0
 10
294.0665
 20
143.1607
 30
0.0
 10
294.0665
 20
96.6108
 30
0.0
 10
294.0665
 20
96.6108
 30
0.0
  0
SPLINE
  5
52
330
1F
100
AcDbEntity
  8
Layer 1
370
    15
100
AcDbSpline
210
0.0
220
0.0
230
1.0
 70
    24
 71
     3
 72
     8
 73
     4
 74
     0
 42
0.0000000001
 43
0.0000000001
 12
1.0
 22
0.0
 32
0.0
 13
1.0
 23
0.0
 33
0.0
 40
0.0
 40
0.0
 40
0.0
 40
0.0
 40
1.0
 40
1.0
 40
1.0
 40
1.0
 10
294.0665
 20
96.6108
 30
0.0
 10
294.0665
 20
96.6108
 30
0.0
 10
144.0665
 20
96.6108
 30
0.0
 10
144.0665
 20
96.6108
 30
0.0
  0
SPLINE
  5
53
330
1F
100
AcDbEntity
  8
Layer 1
370
    15
100
AcDbSpline
210
0.0
220
0.0
230
1.0
 70
    24
 71
     3
 72
     8
 73
     4
 74
     0
 42
0.0000000001
 43
0.0000000001
 12
1.0
 22
0.0
 32
0.0
 13
1.0
 23
0.0
 33
0.0
 40
0.0
 40
0.0
 40
0.0
 40
0.0
 40
1.0
 40
1.0
 40
1.0
 40
1.0
 10
144.0665
 20
96.6108
 30
0.0
 10
144.0665
 20
96.6108
 30
0.0
 10
144.0665
 20
121.1608
 30
0.0
 10
144.0665
 20
121.1608
 30
0.0
  0
SPLINE
  5
54
330
1F
100
AcDbEntity
  8
Layer 1
370
    15
100
AcDbSpline
210
0.0
220
0.0
230
1.0
 70
    24
 71
     3
 72
     8
 73
     4
 74
     0
 42
0.0000000001
 43
0.0000000001
 12
1.0
 22
0.0
 32
0.0
 13
1.0
 23
0.0
 33
0.0
 40
0.0
 40
0.0
 40
0.0
 40
0.0
 40
1.0
 40
1.0
 40
1.0
 40
1.0
 10
144.0665
 20
121.1608
 30
0.0
 10
144.0665
 20
121.1608
 30
0.0
 10
141.0665
 20
121.1608
 30
0.0
 10
141.0665
 20
121.1608
 30
0.0
  0
SPLINE
  5
55
330
1F
100
AcDbEntity
  8
Layer 1
370
    15
100
AcDbSpline
210
0.0
220
0.0
230
1.0
 70
    24
 71
     3
 72
     8
 73
     4
 74
     0
 42
0.0000000001
 43
0.0000000001
 12
1.0
 22
0.0
 32
0.0
 13
1.0
 23
0.0
 33
0.0
 40
0.0
 40
0.0
 40
0.0
 40
0.0
 40
1.0
 40
1.0
 40
1.0
 40
1.0
 10
141.0665
 20
121.1608
 30
0.0
 10
141.0665
 20
121.1608
 30
0.0
 10
141.0665
 20
96.6108
 30
0.0
 10
141.0665
 20
96.6108
 30
0.0
  0
SPLINE
  5
56
330
1F
100
AcDbEntity
  8
Layer 1
370
    15
100
AcDbSpline
210
0.0
220
0.0
230
1.0
 70
    24
 71
     3
 72
     8
 73
     4
 74
     0
 42
0.0000000001
 43
0.0000000001
 12
1.0
 22
0.0
 32
0.0
 13
1.0
 23
0.0
 33
0.0
 40
0.0
 40
0.0
 40
0.0
 40
0.0
 40
1.0
 40
1.0
 40
1.0
 40
1.0
 10
141.0665
 20
96.6108
 30
0.0
 10
141.0665
 20
96.6108
 30
0.0
 10
34.0665
 20
96.6108
 30
0.0
 10
34.0665
 20
96.6108
 30
0.0
  0
SPLINE
  5
57
330
1F
100
AcDbEntity
  8
Layer 1
370
    15
100
AcDbSpline
210
0.0
220
0.0
230
1.0
 70
    24
 71
     3
 72
     8
 73
     4
 74
     0
 42
0.0000000001
 43
0.0000000001
 12
1.0
 22
0.0
 32
0.0
 13
1.0
 23
0.0
 33
0.0
 40
0.0
 40
0.0
 40
0.0
 40
0.0
 40
1.0
 40
1.0
 40
1.0
 40
1.0
 10
34.0665
 20
96.6108
 30
0.0
 10
34.0665
 20
96.6108
 30
0.0
 10
34.0665
 20
93.7108
 30
0.0
 10
34.0665
 20
93.7108
 30
0.0
  0
SPLINE
  5
58
330
1F
100
AcDbEntity
  8
Layer 1
370
    15
100
AcDbSpline
210
0.0
220
0.0
230
1.0
 70
    24
 71
     3
 72
     8
 73
     4
 74
     0
 42
0.0000000001
 43
0.0000000001
 12
1.0
 22
0.0
 32
0.0
 13
1.0
 23
0.0
 33
0.0
 40
0.0
 40
0.0
 40
0.0
 40
0.0
 40
1.0
 40
1.0
 40
1.0
 40
1.0
 10
34.0665
 20
93.7108
 30
0.0
 10
34.0665
 20
93.7108
 30
0.0
 10
141.0665
 20
93.7108
 30
0.0
 10
141.0665
 20
93.7108
 30
0.0
  0
SPLINE
  5
59
330
1F
100
AcDbEntity
  8
Layer 1
370
    15
100
AcDbSpline
210
0.0
220
0.0
230
1.0
 70
    24
 71
     3
 72
     8
 73
     4
 74
     0
 42
0.0000000001
 43
0.0000000001
 12
1.0
 22
0.0
 32
0.0
 13
1.0
 23
0.0
 33
0.0
 40
0.0
 40
0.0
 40
0.0
 40
0.0
 40
1.0
 40
1.0
 40
1.0
 40
1.0
 10
141.0665
 20
93.7108
 30
0.0
 10
141.0665
 20
93.7108
 30
0.0
 10
141.0665
 20
69.1608
 30
0.0
 10
141.0665
 20
69.1608
 30
0.0
  0
SPLINE
  5
5A
330
1F
100
AcDbEntity
  8
Layer 1
370
    15
100
AcDbSpline
210
0.0
220
0.0
230
1.0
 70
    24
 71
     3
 72
     8
 73
     4
 74
     0
 42
0.0000000001
 43
0.0000000001
 12
1.0
 22
0.0
 32
0.0
 13
1.0
 23
0.0
 33
0.0
 40
0.0
 40
0.0
 40
0.0
 40
0.0
 40
1.0
 40
1.0
 40
1.0
 40
1.0
 10
141.0665
 20
69.1608
 30
0.0
 10
141.0665
 20
69.1608
 30
0.0
 10
144.0665
 20
69.1608
 30
0.0
 10
144.0665
 20
69.1608
 30
0.0
  0
SPLINE
  5
5B
330
1F
100
AcDbEntity
  8
Layer 1
370
    15
100
AcDbSpline
210
0.0
220
0.0
230
1.0
 70
    24
 71
     3
 72
     8
 73
     4
 74
     0
 42
0.0000000001
 43
0.0000000001
 12
1.0
 22
0.0
 32
0.0
 13
1.0
 23
0.0
 33
0.0
 40
0.0
 40
0.0
 40
0.0
 40
0.0
 40
1.0
 40
1.0
 40
1.0
 40
1.0
 10
144.0665
 20
69.1608
 30
0.0
 10
144.0665
 20
69.1608
 30
0.0
 10
144.0665
 20
93.7108
 30
0.0
 10
144.0665
 20
93.7108
 30
0.0
  0
SPLINE
  5
5C
330
1F
100
AcDbEntity
  8
Layer 1
370
    15
100
AcDbSpline
210
0.0
220
0.0
230
1.0
 70
    24
 71
     3
 72
     8
 73
     4
 74
     0
 42
0.0000000001
 43
0.0000000001
 12
1.0
 22
0.0
 32
0.0
 13
1.0
 23
0.0
 33
0.0
 40
0.0
 40
0.0
 40
0.0
 40
0.0
 40
1.0
 40
1.0
 40
1.0
 40
1.0
 10
144.0665
 20
93.7108
 30
0.0
 10
144.0665
 20
93.7108
 30
0.0
 10
294.0665
 20
93.7108
 30
0.0
 10
294.0665
 20
93.7108
 30
0.0
  0
SPLINE
  5
5D
330
1F
100
AcDbEntity
  8
Layer 1
370
    15
100
AcDbSpline
210
0.0
220
0.0
230
1.0
 70
    24
 71
     3
 72
     8
 73
     4
 74
     0
 42
0.0000000001
 43
0.0000000001
 12
1.0
 22
0.0
 32
0.0
 13
1.0
 23
0.0
 33
0.0
 40
0.0
 40
0.0
 40
0.0
 40
0.0
 40
1.0
 40
1.0
 40
1.0
 40
1.0
 10
294.0665
 20
93.7108
 30
0.0
 10
294.0665
 20
93.7108
 30
0.0
 10
294.0665
 20
57.1608
 30
0.0
 10
294.0665
 20
57.1608
 30
0.0
  0
SPLINE
  5
5E
330
1F
100
AcDbEntity
  8
Layer 1
370
    15
100
AcDbSpline
210
0.0
220
0.0
230
1.0
 70
    24
 71
     3
 72
     8
 73
     4
 74
     0
 42
0.0000000001
 43
0.0000000001
 12
1.0
 22
0.0
 32
0.0
 13
1.0
 23
0.0
 33
0.0
 40
0.0
 40
0.0
 40
0.0
 40
0.0
 40
1.0
 40
1.0
 40
1.0
 40
1.0
 10
294.0665
 20
57.1608
 30
0.0
 10
294.0665
 20
57.1608
 30
0.0
 10
284.0665
 20
57.1608
 30
0.0
 10
284.0665
 20
57.1608
 30
0.0
  0
SPLINE
  5
5F
330
1F
100
AcDbEntity
  8
Layer 1
370
    15
100
AcDbSpline
210
0.0
220
0.0
230
1.0
 70
     8
 71
     3
 72
    12
 73
     8
 74
     0
 42
0.0000000001
 43
0.0000000001
 12
1.0
 22
0.0
 32
0.0
 13
1.0
 23
0.0
 33
0.0
 40
0.0
 40
0.0
 40
0.0
 40
0.0
 40
0.3333333333333333
 40
0.3333333333333333
 40
0.3333333333333333
 40
0.3333333333333333
 40
1.0
 40
1.0
 40
1.0
 40
1.0
 10
284.0665
 20
51.1608
 30
0.0
 10
282.4096
 20
51.1608
 30
0.0
 10
281.0665
 20
52.5039
 30
0.0
 10
281.0665
 20
54.1608
 30
0.0
 10
281.0665
 20
54.1608
 30
0.0
 10
281.0665
 20
55.8176
 30
0.0
 10
282.4096
 20
57.1608
 30
0.0
 10
284.0665
 20
57.1608
 30
0.0
  0
SPLINE
  5
60
330
1F
100
AcDbEntity
  8
Layer 1
370
    15
100
AcDbSpline
210
0.0
220
0.0
230
1.0
 70
    24
 71
     3
 72
     8
 73
     4
 74
     0
 42
0.0000000001
 43
0.0000000001
 12
1.0
 22
0.0
 32
0.0
 13
1.0
 23
0.0
 33
0.0
 40
0.0
 40
0.0
 40
0.0
 40
0.0
 40
1.0
 40
1.0
 40
1.0
 40
1.0
 10
284.0665
 20
51.1608
 30
0.0
 10
284.0665
 20
51.1608
 30
0.0
 10
294.0665
 20
51.1608
 30
0.0
 10
294.0665
 20
51.1608
 30
0.0
  0
SPLINE
  5
61
330
1F
100
AcDbEntity
  8
Layer 1
370
    15
100
AcDbSpline
210
0.0
220
0.0
230
1.0
 70
    24
 71
     3
 72
     8
 73
     4
 74
     0
 42
0.0000000001
 43
0.0000000001
 12
1.0
 22
0.0
 32
0.0
 13
1.0
 23
0.0
 33
0.0
 40
0.0
 40
0.0
 40
0.0
 40
0.0
 40
1.0
 40
1.0
 40
1.0
 40
1.0
 10
294.0665
 20
51.1608
 30
0.0
 10
294.0665
 20
51.1608
 30
0.0
 10
294.0665
 20
47.1609
 30
0.0
 10
294.0665
 20
47.1609
 30
0.0
  0
SPLINE
  5
62
330
1F
100
AcDbEntity
  8
Layer 1
370
    15
100
AcDbSpline
210
0.0
220
0.0
230
1.0
 70
    24
 71
     3
 72
     8
 73
     4
 74
     0
 42
0.0000000001
 43
0.0000000001
 12
1.0
 22
0.0
 32
0.0
 13
1.0
 23
0.0
 33
0.0
 40
0.0
 40
0.0
 40
0.0
 40
0.0
 40
1.0
 40
1.0
 40
1.0
 40
1.0
 10
294.0665
 20
47.1609
 30
0.0
 10
294.0665
 20
47.1609
 30
0.0
 10
275.064
 20
47.1609
 30
0.0
 10
275.064
 20
47.1609
 30
0.0
  0
SPLINE
  5
63
330
1F
100
AcDbEntity
  8
Layer 1
370
    15
100
AcDbSpline
210
0.0
220
0.0
230
1.0
 70
     8
 71
     3
 72
     8
 73
     4
 74
     0
 42
0.0000000001
 43
0.0000000001
 12
1.0
 22
0.0
 32
0.0
 13
1.0
 23
0.0
 33
0.0
 40
0.0
 40
0.0
 40
0.0
 40
0.0
 40
1.0
 40
1.0
 40
1.0
 40
1.0
 10
275.064
 20
47.1609
 30
0.0
 10
274.3994
 20
47.1609
 30
0.0
 10
273.7352
 20
47.194
 30
0.0
 10
273.074
 20
47.2601
 30
0.0
  0
SPLINE
  5
64
330
1F
100
AcDbEntity
  8
Layer 1
370
    15
100
AcDbSpline
210
0.0
220
0.0
230
1.0
 70
    24
 71
     3
 72
     8
 73
     4
 74
     0
 42
0.0000000001
 43
0.0000000001
 12
1.0
 22
0.0
 32
0.0
 13
1.0
 23
0.0
 33
0.0
 40
0.0
 40
0.0
 40
0.0
 40
0.0
 40
1.0
 40
1.0
 40
1.0
 40
1.0
 10
273.074
 20
47.2601
 30
0.0
 10
273.074
 20
47.2601
 30
0.0
 10
245.059
 20
50.0615
 30
0.0
 10
245.059
 20
50.0615
 30
0.0
  0
SPLINE
  5
65
330
1F
100
AcDbEntity
  8
Layer 1
370
    15
100
AcDbSpline
210
0.0
220
0.0
230
1.0
 70
     8
 71
     3
 72
     8
 73
     4
 74
     0
 42
0.0000000001
 43
0.0000000001
 12
1.0
 22
0.0
 32
0.0
 13
1.0
 23
0.0
 33
0.0
 40
0.0
 40
0.0
 40
0.0
 40
0.0
 40
1.0
 40
1.0
 40
1.0
 40
1.0
 10
243.069
 20
50.1608
 30
0.0
 10
243.7336
 20
50.1608
 30
0.0
 10
244.3978
 20
50.1277
 30
0.0
 10
245.059
 20
50.0615
 30
0.0
  0
SPLINE
  5
66
330
1F
100
AcDbEntity
  8
Layer 1
370
    15
100
AcDbSpline
210
0.0
220
0.0
230
1.0
 70
    24
 71
     3
 72
     8
 73
     4
 74
     0
 42
0.0000000001
 43
0.0000000001
 12
1.0
 22
0.0
 32
0.0
 13
1.0
 23
0.0
 33
0.0
 40
0.0
 40
0.0
 40
0.0
 40
0.0
 40
1.0
 40
1.0
 40
1.0
 40
1.0
 10
243.069
 20
50.1608
 30
0.0
 10
243.069
 20
50.1608
 30
0.0
 10
-100.3543
 20
50.1608
 30
0.0
 10
-100.3543
 20
50.1608
 30
0.0
  0
SPLINE
  5
67
330
1F
100
AcDbEntity
  8
Layer 1
370
    15
100
AcDbSpline
210
0.0
220
0.0
230
1.0
 70
     8
 71
     3
 72
     8
 73
     4
 74
     0
 42
0.0000000001
 43
0.0000000001
 12
1.0
 22
0.0
 32
0.0
 13
1.0
 23
0.0
 33
0.0
 40
0.0
 40
0.0
 40
0.0
 40
0.0
 40
1.0
 40
1.0
 40
1.0
 40
1.0
 10
-100.3543
 20
50.1608
 30
0.0
 10
-101.4055
 20
50.1608
 30
0.0
 10
-102.455
 20
50.2437
 30
0.0
 10
-103.4931
 20
50.4086
 30
0.0
  0
SPLINE
  5
68
330
1F
100
AcDbEntity
  8
Layer 1
370
    15
100
AcDbSpline
210
0.0
220
0.0
230
1.0
 70
    24
 71
     3
 72
     8
 73
     4
 74
     0
 42
0.0000000001
 43
0.0000000001
 12
1.0
 22
0.0
 32
0.0
 13
1.0
 23
0.0
 33
0.0
 40
0.0
 40
0.0
 40
0.0
 40
0.0
 40
1.0
 40
1.0
 40
1.0
 40
1.0
 10
-103.4931
 20
50.4086
 30
0.0
 10
-103.4931
 20
50.4086
 30
0.0
 10
-200.2474
 20
65.7837
 30
0.0
 10
-200.2474
 20
65.7837
 30
0.0
  0
SPLINE
  5
69
330
1F
100
AcDbEntity
  8
Layer 1
370
    15
100
AcDbSpline
210
0.0
220
0.0
230
1.0
 70
     8
 71
     3
 72
     8
 73
     4
 74
     0
 42
0.0000000001
 43
0.0000000001
 12
1.0
 22
0.0
 32
0.0
 13
1.0
 23
0.0
 33
0.0
 40
0.0
 40
0.0
 40
0.0
 40
0.0
 40
1.0
 40
1.0
 40
1.0
 40
1.0
 10
-200.2474
 20
65.7837
 30
0.0
 10
-201.2186
 20
65.938
 30
0.0
 10
-201.9335
 20
66.7755
 30
0.0
 10
-201.9335
 20
67.7589
 30
0.0
  0
SPLINE
  5
6A
330
1F
100
AcDbEntity
  8
Layer 1
370
    15
100
AcDbSpline
210
0.0
220
0.0
230
1.0
 70
    24
 71
     3
 72
     8
 73
     4
 74
     0
 42
0.0000000001
 43
0.0000000001
 12
1.0
 22
0.0
 32
0.0
 13
1.0
 23
0.0
 33
0.0
 40
0.0
 40
0.0
 40
0.0
 40
0.0
 40
1.0
 40
1.0
 40
1.0
 40
1.0
 10
-201.9335
 20
67.7589
 30
0.0
 10
-201.9335
 20
67.7589
 30
0.0
 10
-201.9335
 20
69.1608
 30
0.0
 10
-201.9335
 20
69.1608
 30
0.0
  0
SPLINE
  5
6B
330
1F
100
AcDbEntity
  8
Layer 1
370
    15
100
AcDbSpline
210
0.0
220
0.0
230
1.0
 70
    24
 71
     3
 72
     8
 73
     4
 74
     0
 42
0.0000000001
 43
0.0000000001
 12
1.0
 22
0.0
 32
0.0
 13
1.0
 23
0.0
 33
0.0
 40
0.0
 40
0.0
 40
0.0
 40
0.0
 40
1.0
 40
1.0
 40
1.0
 40
1.0
 10
-201.9335
 20
69.1608
 30
0.0
 10
-201.9335
 20
69.1608
 30
0.0
 10
-199.2335
 20
69.1608
 30
0.0
 10
-199.2335
 20
69.1608
 30
0.0
  0
SPLINE
  5
6C
330
1F
100
AcDbEntity
  8
Layer 1
370
    15
100
AcDbSpline
210
0.0
220
0.0
230
1.0
 70
    24
 71
     3
 72
     8
 73
     4
 74
     0
 42
0.0000000001
 43
0.0000000001
 12
1.0
 22
0.0
 32
0.0
 13
1.0
 23
0.0
 33
0.0
 40
0.0
 40
0.0
 40
0.0
 40
0.0
 40
1.0
 40
1.0
 40
1.0
 40
1.0
 10
-199.2335
 20
69.1608
 30
0.0
 10
-199.2335
 20
69.1608
 30
0.0
 10
-199.2335
 20
121.1608
 30
0.0
 10
-199.2335
 20
121.1608
 30
0.0
  0
SPLINE
  5
6D
330
1F
100
AcDbEntity
  8
Layer 1
370
    15
100
AcDbSpline
210
0.0
220
0.0
230
1.0
 70
    24
 71
     3
 72
     8
 73
     4
 74
     0
 42
0.0000000001
 43
0.0000000001
 12
1.0
 22
0.0
 32
0.0
 13
1.0
 23
0.0
 33
0.0
 40
0.0
 40
0.0
 40
0.0
 40
0.0
 40
1.0
 40
1.0
 40
1.0
 40
1.0
 10
-199.2335
 20
121.1608
 30
0.0
 10
-199.2335
 20
121.1608
 30
0.0
 10
-201.9335
 20
121.1608
 30
0.0
 10
-201.9335
 20
121.1608
 30
0.0
  0
SPLINE
  5
6E
330
1F
100
AcDbEntity
  8
Layer 1
370
    15
100
AcDbSpline
210
0.0
220
0.0
230
1.0
 70
    24
 71
     3
 72
     8
 73
     4
 74
     0
 42
0.0000000001
 43
0.0000000001
 12
1.0
 22
0.0
 32
0.0
 13
1.0
 23
0.0
 33
0.0
 40
0.0
 40
0.0
 40
0.0
 40
0.0
 40
1.0
 40
1.0
 40
1.0
 40
1.0
 10
-201.9335
 20
121.1608
 30
0.0
 10
-201.9335
 20
121.1608
 30
0.0
 10
-201.9335
 20
122.5627
 30
0.0
 10
-201.9335
 20
122.5627
 30
0.0
  0
SPLINE
  5
6F
330
1F
100
AcDbEntity
  8
Layer 1
370
    15
100
AcDbSpline
210
0.0
220
0.0
230
1.0
 70
     8
 71
     3
 72
     8
 73
     4
 74
     0
 42
0.0000000001
 43
0.0000000001
 12
1.0
 22
0.0
 32
0.0
 13
1.0
 23
0.0
 33
0.0
 40
0.0
 40
0.0
 40
0.0
 40
0.0
 40
1.0
 40
1.0
 40
1.0
 40
1.0
 10
-201.9335
 20
122.5627
 30
0.0
 10
-201.9335
 20
123.5461
 30
0.0
 10
-201.2186
 20
124.3836
 30
0.0
 10
-200.2474
 20
124.5379
 30
0.0
  0
SPLINE
  5
70
330
1F
100
AcDbEntity
  8
Layer 1
370
    15
100
AcDbSpline
210
0.0
220
0.0
230
1.0
 70
    24
 71
     3
 72
     8
 73
     4
 74
     0
 42
0.0000000001
 43
0.0000000001
 12
1.0
 22
0.0
 32
0.0
 13
1.0
 23
0.0
 33
0.0
 40
0.0
 40
0.0
 40
0.0
 40
0.0
 40
1.0
 40
1.0
 40
1.0
 40
1.0
 10
-200.2474
 20
124.5379
 30
0.0
 10
-200.2474
 20
124.5379
 30
0.0
 10
-103.4931
 20
139.913
 30
0.0
 10
-103.4931
 20
139.913
 30
0.0
  0
SPLINE
  5
71
330
1F
100
AcDbEntity
  8
Layer 1
370
    15
100
AcDbSpline
210
0.0
220
0.0
230
1.0
 70
     8
 71
     3
 72
     8
 73
     4
 74
     0
 42
0.0000000001
 43
0.0000000001
 12
1.0
 22
0.0
 32
0.0
 13
1.0
 23
0.0
 33
0.0
 40
0.0
 40
0.0
 40
0.0
 40
0.0
 40
1.0
 40
1.0
 40
1.0
 40
1.0
 10
-103.4931
 20
139.913
 30
0.0
 10
-102.455
 20
140.0779
 30
0.0
 10
-101.4055
 20
140.1608
 30
0.0
 10
-100.3543
 20
140.1608
 30
0.0
  0
SPLINE
  5
72
330
1F
100
AcDbEntity
  8
Layer 1
370
    15
100
AcDbSpline
210
0.0
220
0.0
230
1.0
 70
    24
 71
     3
 72
     8
 73
     4
 74
     0
 42
0.0000000001
 43
0.0000000001
 12
1.0
 22
0.0
 32
0.0
 13
1.0
 23
0.0
 33
0.0
 40
0.0
 40
0.0
 40
0.0
 40
0.0
 40
1.0
 40
1.0
 40
1.0
 40
1.0
 10
-100.3543
 20
140.1608
 30
0.0
 10
-100.3543
 20
140.1608
 30
0.0
 10
243.069
 20
140.1608
 30
0.0
 10
243.069
 20
140.1608
 30
0.0
  0
SPLINE
  5
73
330
1F
100
AcDbEntity
  8
Layer 1
370
    15
100
AcDbSpline
210
0.0
220
0.0
230
1.0
 70
     8
 71
     3
 72
     8
 73
     4
 74
     0
 42
0.0000000001
 43
0.0000000001
 12
1.0
 22
0.0
 32
0.0
 13
1.0
 23
0.0
 33
0.0
 40
0.0
 40
0.0
 40
0.0
 40
0.0
 40
1.0
 40
1.0
 40
1.0
 40
1.0
 10
245.059
 20
140.2601
 30
0.0
 10
244.3978
 20
140.1939
 30
0.0
 10
243.7336
 20
140.1608
 30
0.0
 10
243.069
 20
140.1608
 30
0.0
  0
SPLINE
  5
74
330
1F
100
AcDbEntity
  8
Layer 1
370
    15
100
AcDbSpline
210
0.0
220
0.0
230
1.0
 70
    24
 71
     3
 72
     8
 73
     4
 74
     0
 42
0.0000000001
 43
0.0000000001
 12
1.0
 22
0.0
 32
0.0
 13
1.0
 23
0.0
 33
0.0
 40
0.0
 40
0.0
 40
0.0
 40
0.0
 40
1.0
 40
1.0
 40
1.0
 40
1.0
 10
245.059
 20
140.2601
 30
0.0
 10
245.059
 20
140.2601
 30
0.0
 10
273.074
 20
143.0615
 30
0.0
 10
273.074
 20
143.0615
 30
0.0
  0
SPLINE
  5
75
330
1F
100
AcDbEntity
  8
Layer 1
370
    15
100
AcDbSpline
210
0.0
220
0.0
230
1.0
 70
     8
 71
     3
 72
     8
 73
     4
 74
     0
 42
0.0000000001
 43
0.0000000001
 12
1.0
 22
0.0
 32
0.0
 13
1.0
 23
0.0
 33
0.0
 40
0.0
 40
0.0
 40
0.0
 40
0.0
 40
1.0
 40
1.0
 40
1.0
 40
1.0
 10
273.074
 20
143.0615
 30
0.0
 10
273.7352
 20
143.1276
 30
0.0
 10
274.3994
 20
143.1607
 30
0.0
 10
275.064
 20
143.1607
 30
0.0
  0
SPLINE
  5
76
330
1F
100
AcDbEntity
  8
Layer 1
370
    15
100
AcDbSpline
210
0.0
220
0.0
230
1.0
 70
    24
 71
     3
 72
     8
 73
     4
 74
     0
 42
0.0000000001
 43
0.0000000001
 12
1.0
 22
0.0
 32
0.0
 13
1.0
 23
0.0
 33
0.0
 40
0.0
 40
0.0
 40
0.0
 40
0.0
 40
1.0
 40
1.0
 40
1.0
 40
1.0
 10
275.064
 20
143.1607
 30
0.0
 10
275.064
 20
143.1607
 30
0.0
 10
294.0665
 20
143.1607
 30
0.0
 10
294.0665
 20
143.1607
 30
0.0
  0
SPLINE
  5
77
330
1F
100
AcDbEntity
  8
Layer 1
370
    15
100
AcDbSpline
210
0.0
220
0.0
230
1.0
 70
    11
 71
     3
 72
    20
 73
    16
 74
     0
 42
0.0000000001
 43
0.0000000001
 12
1.0
 22
0.0
 32
0.0
 13
1.0
 23
0.0
 33
0.0
 40
0.0
 40
0.0
 40
0.0
 40
0.0
 40
0.2
 40
0.2
 40
0.2
 40
0.2
 40
0.4
 40
0.4
 40
0.4
 40
0.4
 40
0.6
 40
0.6
 40
0.6
 40
0.6
 40
1.0
 40
1.0
 40
1.0
 40
1.0
 10
258.6165
 20
54.1608
 30
0.0
 10
258.6165
 20
54.9616
 30
0.0
 10
259.2657
 20
55.6108
 30
0.0
 10
260.0665
 20
55.6108
 30
0.0
 10
260.0665
 20
55.6108
 30
0.0
 10
260.8673
 20
55.6108
 30
0.0
 10
261.5165
 20
54.9616
 30
0.0
 10
261.5165
 20
54.1608
 30
0.0
 10
261.5165
 20
54.1608
 30
0.0
 10
261.5165
 20
53.36
 30
0.0
 10
260.8673
 20
52.7108
 30
0.0
 10
260.0665
 20
52.7108
 30
0.0
 10
260.0665
 20
52.7108
 30
0.0
 10
259.2657
 20
52.7108
 30
0.0
 10
258.6165
 20
53.36
 30
0.0
 10
258.6165
 20
54.1608
 30
0.0
  0
SPLINE
  5
78
330
1F
100
AcDbEntity
  8
Layer 1
370
    15
100
AcDbSpline
210
0.0
220
0.0
230
1.0
 70
    11
 71
     3
 72
    20
 73
    16
 74
     0
 42
0.0000000001
 43
0.0000000001
 12
1.0
 22
0.0
 32
0.0
 13
1.0
 23
0.0
 33
0.0
 40
0.0
 40
0.0
 40
0.0
 40
0.0
 40
0.2
 40
0.2
 40
0.2
 40
0.2
 40
0.4
 40
0.4
 40
0.4
 40
0.4
 40
0.6
 40
0.6
 40
0.6
 40
0.6
 40
1.0
 40
1.0
 40
1.0
 40
1.0
 10
200.6628
 20
54.1608
 30
0.0
 10
200.6628
 20
54.9508
 30
0.0
 10
201.3032
 20
55.5912
 30
0.0
 10
202.0932
 20
55.5912
 30
0.0
 10
202.0932
 20
55.5912
 30
0.0
 10
202.8832
 20
55.5912
 30
0.0
 10
203.5236
 20
54.9508
 30
0.0
 10
203.5236
 20
54.1608
 30
0.0
 10
203.5236
 20
54.1608
 30
0.0
 10
203.5236
 20
53.3708
 30
0.0
 10
202.8832
 20
52.7304
 30
0.0
 10
202.0932
 20
52.7304
 30
0.0
 10
202.0932
 20
52.7304
 30
0.0
 10
201.3032
 20
52.7304
 30
0.0
 10
200.6628
 20
53.3708
 30
0.0
 10
200.6628
 20
54.1608
 30
0.0
  0
SPLINE
  5
79
330
1F
100
AcDbEntity
  8
Layer 1
370
    15
100
AcDbSpline
210
0.0
220
0.0
230
1.0
 70
    11
 71
     3
 72
    20
 73
    16
 74
     0
 42
0.0000000001
 43
0.0000000001
 12
1.0
 22
0.0
 32
0.0
 13
1.0
 23
0.0
 33
0.0
 40
0.0
 40
0.0
 40
0.0
 40
0.0
 40
0.2
 40
0.2
 40
0.2
 40
0.2
 40
0.4
 40
0.4
 40
0.4
 40
0.4
 40
0.6
 40
0.6
 40
0.6
 40
0.6
 40
1.0
 40
1.0
 40
1.0
 40
1.0
 10
142.7091
 20
54.1608
 30
0.0
 10
142.7091
 20
54.94
 30
0.0
 10
143.3407
 20
55.5717
 30
0.0
 10
144.1199
 20
55.5717
 30
0.0
 10
144.1199
 20
55.5717
 30
0.0
 10
144.8991
 20
55.5717
 30
0.0
 10
145.5308
 20
54.94
 30
0.0
 10
145.5308
 20
54.1608
 30
0.0
 10
145.5308
 20
54.1608
 30
0.0
 10
145.5308
 20
53.3816
 30
0.0
 10
144.8991
 20
52.7499
 30
0.0
 10
144.1199
 20
52.7499
 30
0.0
 10
144.1199
 20
52.7499
 30
0.0
 10
143.3407
 20
52.7499
 30
0.0
 10
142.7091
 20
53.3816
 30
0.0
 10
142.7091
 20
54.1608
 30
0.0
  0
SPLINE
  5
7A
330
1F
100
AcDbEntity
  8
Layer 1
370
    15
100
AcDbSpline
210
0.0
220
0.0
230
1.0
 70
    11
 71
     3
 72
    20
 73
    16
 74
     0
 42
0.0000000001
 43
0.0000000001
 12
1.0
 22
0.0
 32
0.0
 13
1.0
 23
0.0
 33
0.0
 40
0.0
 40
0.0
 40
0.0
 40
0.0
 40
0.2
 40
0.2
 40
0.2
 40
0.2
 40
0.4
 40
0.4
 40
0.4
 40
0.4
 40
0.6
 40
0.6
 40
0.6
 40
0.6
 40
1.0
 40
1.0
 40
1.0
 40
1.0
 10
84.7553
 20
54.1608
 30
0.0
 10
84.7553
 20
54.9292
 30
0.0
 10
85.3782
 20
55.5521
 30
0.0
 10
86.1466
 20
55.5521
 30
0.0
 10
86.1466
 20
55.5521
 30
0.0
 10
86.915
 20
55.5521
 30
0.0
 10
87.538
 20
54.9292
 30
0.0
 10
87.538
 20
54.1608
 30
0.0
 10
87.538
 20
54.1608
 30
0.0
 10
87.538
 20
53.3924
 30
0.0
 10
86.915
 20
52.7695
 30
0.0
 10
86.1466
 20
52.7695
 30
0.0
 10
86.1466
 20
52.7695
 30
0.0
 10
85.3782
 20
52.7695
 30
0.0
 10
84.7553
 20
53.3924
 30
0.0
 10
84.7553
 20
54.1608
 30
0.0
  0
SPLINE
  5
7B
330
1F
100
AcDbEntity
  8
Layer 1
370
    15
100
AcDbSpline
210
0.0
220
0.0
230
1.0
 70
    11
 71
     3
 72
    20
 73
    16
 74
     0
 42
0.0000000001
 43
0.0000000001
 12
1.0
 22
0.0
 32
0.0
 13
1.0
 23
0.0
 33
0.0
 40
0.0
 40
0.0
 40
0.0
 40
0.0
 40
0.2
 40
0.2
 40
0.2
 40
0.2
 40
0.4
 40
0.4
 40
0.4
 40
0.4
 40
0.6
 40
0.6
 40
0.6
 40
0.6
 40
1.0
 40
1.0
 40
1.0
 40
1.0
 10
26.8015
 20
54.1608
 30
0.0
 10
26.8015
 20
54.9184
 30
0.0
 10
27.4157
 20
55.5326
 30
0.0
 10
28.1733
 20
55.5326
 30
0.0
 10
28.1733
 20
55.5326
 30
0.0
 10
28.931
 20
55.5326
 30
0.0
 10
29.5451
 20
54.9184
 30
0.0
 10
29.5451
 20
54.1608
 30
0.0
 10
29.5451
 20
54.1608
 30
0.0
 10
29.5451
 20
53.4032
 30
0.0
 10
28.931
 20
52.789
 30
0.0
 10
28.1733
 20
52.789
 30
0.0
 10
28.1733
 20
52.789
 30
0.0
 10
27.4157
 20
52.789
 30
0.0
 10
26.8016
 20
53.4032
 30
0.0
 10
26.8015
 20
54.1608
 30
0.0
  0
SPLINE
  5
7C
330
1F
100
AcDbEntity
  8
Layer 1
370
    15
100
AcDbSpline
210
0.0
220
0.0
230
1.0
 70
    11
 71
     3
 72
    20
 73
    16
 74
     0
 42
0.0000000001
 43
0.0000000001
 12
1.0
 22
0.0
 32
0.0
 13
1.0
 23
0.0
 33
0.0
 40
0.0
 40
0.0
 40
0.0
 40
0.0
 40
0.2
 40
0.2
 40
0.2
 40
0.2
 40
0.4
 40
0.4
 40
0.4
 40
0.4
 40
0.6
 40
0.6
 40
0.6
 40
0.6
 40
1.0
 40
1.0
 40
1.0
 40
1.0
 10
-31.1522
 20
54.1608
 30
0.0
 10
-31.1522
 20
54.9076
 30
0.0
 10
-30.5468
 20
55.5131
 30
0.0
 10
-29.8
 20
55.5131
 30
0.0
 10
-29.8
 20
55.5131
 30
0.0
 10
-29.0531
 20
55.5131
 30
0.0
 10
-28.4477
 20
54.9076
 30
0.0
 10
-28.4477
 20
54.1608
 30
0.0
 10
-28.4477
 20
54.1608
 30
0.0
 10
-28.4477
 20
53.414
 30
0.0
 10
-29.0531
 20
52.8085
 30
0.0
 10
-29.7999
 20
52.8085
 30
0.0
 10
-29.7999
 20
52.8085
 30
0.0
 10
-30.5468
 20
52.8085
 30
0.0
 10
-31.1522
 20
53.414
 30
0.0
 10
-31.1522
 20
54.1608
 30
0.0
  0
SPLINE
  5
7D
330
1F
100
AcDbEntity
  8
Layer 1
370
    15
100
AcDbSpline
210
0.0
220
0.0
230
1.0
 70
    11
 71
     3
 72
    20
 73
    16
 74
     0
 42
0.0000000001
 43
0.0000000001
 12
1.0
 22
0.0
 32
0.0
 13
1.0
 23
0.0
 33
0.0
 40
0.0
 40
0.0
 40
0.0
 40
0.0
 40
0.2
 40
0.2
 40
0.2
 40
0.2
 40
0.4
 40
0.4
 40
0.4
 40
0.4
 40
0.6
 40
0.6
 40
0.6
 40
0.6
 40
1.0
 40
1.0
 40
1.0
 40
1.0
 10
-89.106
 20
54.1608
 30
0.0
 10
-89.106
 20
54.8969
 30
0.0
 10
-88.5093
 20
55.4936
 30
0.0
 10
-87.7732
 20
55.4936
 30
0.0
 10
-87.7732
 20
55.4936
 30
0.0
 10
-87.0372
 20
55.4936
 30
0.0
 10
-86.4405
 20
54.8969
 30
0.0
 10
-86.4405
 20
54.1608
 30
0.0
 10
-86.4405
 20
54.1608
 30
0.0
 10
-86.4405
 20
53.4247
 30
0.0
 10
-87.0372
 20
52.828
 30
0.0
 10
-87.7732
 20
52.828
 30
0.0
 10
-87.7732
 20
52.828
 30
0.0
 10
-88.5093
 20
52.828
 30
0.0
 10
-89.106
 20
53.4247
 30
0.0
 10
-89.106
 20
54.1608
 30
0.0
  0
SPLINE
  5
7E
330
1F
100
AcDbEntity
  8
Layer 1
370
    15
100
AcDbSpline
210
0.0
220
0.0
230
1.0
 70
    11
 71
     3
 72
    20
 73
    16
 74
     0
 42
0.0000000001
 43
0.0000000001
 12
1.0
 22
0.0
 32
0.0
 13
1.0
 23
0.0
 33
0.0
 40
0.0
 40
0.0
 40
0.0
 40
0.0
 40
0.2
 40
0.2
 40
0.2
 40
0.2
 40
0.4
 40
0.4
 40
0.4
 40
0.4
 40
0.6
 40
0.6
 40
0.6
 40
0.6
 40
1.0
 40
1.0
 40
1.0
 40
1.0
 10
-175.9705
 20
65.049
 30
0.0
 10
-175.9705
 20
65.8498
 30
0.0
 10
-175.3213
 20
66.499
 30
0.0
 10
-174.5205
 20
66.499
 30
0.0
 10
-174.5205
 20
66.499
 30
0.0
 10
-173.7197
 20
66.499
 30
0.0
 10
-173.0705
 20
65.8498
 30
0.0
 10
-173.0705
 20
65.049
 30
0.0
 10
-173.0705
 20
65.049
 30
0.0
 10
-173.0705
 20
64.2482
 30
0.0
 10
-173.7197
 20
63.599
 30
0.0
 10
-174.5205
 20
63.599
 30
0.0
 10
-174.5205
 20
63.599
 30
0.0
 10
-175.3213
 20
63.599
 30
0.0
 10
-175.9705
 20
64.2482
 30
0.0
 10
-175.9705
 20
65.049
 30
0.0
  0
SPLINE
  5
7F
330
1F
100
AcDbEntity
  8
Layer 1
370
    15
100
AcDbSpline
210
0.0
220
0.0
230
1.0
 70
    11
 71
     3
 72
    20
 73
    16
 74
     0
 42
0.0000000001
 43
0.0000000001
 12
1.0
 22
0.0
 32
0.0
 13
1.0
 23
0.0
 33
0.0
 40
0.0
 40
0.0
 40
0.0
 40
0.0
 40
0.2
 40
0.2
 40
0.2
 40
0.2
 40
0.4
 40
0.4
 40
0.4
 40
0.4
 40
0.6
 40
0.6
 40
0.6
 40
0.6
 40
1.0
 40
1.0
 40
1.0
 40
1.0
 10
-103.8835
 20
136.0851
 30
0.0
 10
-103.8835
 20
136.886
 30
0.0
 10
-103.2343
 20
137.5351
 30
0.0
 10
-102.4335
 20
137.5351
 30
0.0
 10
-102.4335
 20
137.5351
 30
0.0
 10
-101.6327
 20
137.5351
 30
0.0
 10
-100.9835
 20
136.886
 30
0.0
 10
-100.9835
 20
136.0851
 30
0.0
 10
-100.9835
 20
136.0851
 30
0.0
 10
-100.9835
 20
135.2843
 30
0.0
 10
-101.6327
 20
134.6351
 30
0.0
 10
-102.4335
 20
134.6351
 30
0.0
 10
-102.4335
 20
134.6351
 30
0.0
 10
-103.2343
 20
134.6351
 30
0.0
 10
-103.8835
 20
135.2843
 30
0.0
 10
-103.8835
 20
136.0851
 30
0.0
  0
SPLINE
  5
80
330
1F
100
AcDbEntity
  8
Layer 1
370
    15
100
AcDbSpline
210
0.0
220
0.0
230
1.0
 70
    11
 71
     3
 72
    20
 73
    16
 74
     0
 42
0.0000000001
 43
0.0000000001
 12
1.0
 22
0.0
 32
0.0
 13
1.0
 23
0.0
 33
0.0
 40
0.0
 40
0.0
 40
0.0
 40
0.0
 40
0.2
 40
0.2
 40
0.2
 40
0.2
 40
0.4
 40
0.4
 40
0.4
 40
0.4
 40
0.6
 40
0.6
 40
0.6
 40
0.6
 40
1.0
 40
1.0
 40
1.0
 40
1.0
 10
215.1165
 20
136.1608
 30
0.0
 10
215.1165
 20
136.9616
 30
0.0
 10
215.7657
 20
137.6108
 30
0.0
 10
216.5665
 20
137.6108
 30
0.0
 10
216.5665
 20
137.6108
 30
0.0
 10
217.3673
 20
137.6108
 30
0.0
 10
218.0165
 20
136.9616
 30
0.0
 10
218.0165
 20
136.1608
 30
0.0
 10
218.0165
 20
136.1608
 30
0.0
 10
218.0165
 20
135.36
 30
0.0
 10
217.3673
 20
134.7108
 30
0.0
 10
216.5665
 20
134.7108
 30
0.0
 10
216.5665
 20
134.7108
 30
0.0
 10
215.7657
 20
134.7108
 30
0.0
 10
215.1165
 20
135.36
 30
0.0
 10
215.1165
 20
136.1608
 30
0.0
  0
SPLINE
  5
81
330
1F
100
AcDbEntity
  8
Layer 1
370
    15
100
AcDbSpline
210
0.0
220
0.0
230
1.0
 70
    11
 71
     3
 72
    20
 73
    16
 74
     0
 42
0.0000000001
 43
0.0000000001
 12
1.0
 22
0.0
 32
0.0
 13
1.0
 23
0.0
 33
0.0
 40
0.0
 40
0.0
 40
0.0
 40
0.0
 40
0.2
 40
0.2
 40
0.2
 40
0.2
 40
0.4
 40
0.4
 40
0.4
 40
0.4
 40
0.6
 40
0.6
 40
0.6
 40
0.6
 40
1.0
 40
1.0
 40
1.0
 40
1.0
 10
157.1165
 20
136.1608
 30
0.0
 10
157.1165
 20
136.9616
 30
0.0
 10
157.7657
 20
137.6108
 30
0.0
 10
158.5665
 20
137.6108
 30
0.0
 10
158.5665
 20
137.6108
 30
0.0
 10
159.3673
 20
137.6108
 30
0.0
 10
160.0165
 20
136.9616
 30
0.0
 10
160.0165
 20
136.1608
 30
0.0
 10
160.0165
 20
136.1608
 30
0.0
 10
160.0165
 20
135.36
 30
0.0
 10
159.3673
 20
134.7108
 30
0.0
 10
158.5665
 20
134.7108
 30
0.0
 10
158.5665
 20
134.7108
 30
0.0
 10
157.7657
 20
134.7108
 30
0.0
 10
157.1165
 20
135.36
 30
0.0
 10
157.1165
 20
136.1608
 30
0.0
  0
SPLINE
  5
82
330
1F
100
AcDbEntity
  8
Layer 1
370
    15
100
AcDbSpline
210
0.0
220
0.0
230
1.0
 70
    11
 71
     3
 72
    20
 73
    16
 74
     0
 42
0.0000000001
 43
0.0000000001
 12
1.0
 22
0.0
 32
0.0
 13
1.0
 23
0.0
 33
0.0
 40
0.0
 40
0.0
 40
0.0
 40
0.0
 40
0.2
 40
0.2
 40
0.2
 40
0.2
 40
0.4
 40
0.4
 40
0.4
 40
0.4
 40
0.6
 40
0.6
 40
0.6
 40
0.6
 40
1.0
 40
1.0
 40
1.0
 40
1.0
 10
99.1165
 20
136.1608
 30
0.0
 10
99.1165
 20
136.9616
 30
0.0
 10
99.7657
 20
137.6108
 30
0.0
 10
100.5665
 20
137.6108
 30
0.0
 10
100.5665
 20
137.6108
 30
0.0
 10
101.3673
 20
137.6108
 30
0.0
 10
102.0165
 20
136.9616
 30
0.0
 10
102.0165
 20
136.1608
 30
0.0
 10
102.0165
 20
136.1608
 30
0.0
 10
102.0165
 20
135.36
 30
0.0
 10
101.3673
 20
134.7108
 30
0.0
 10
100.5665
 20
134.7108
 30
0.0
 10
100.5665
 20
134.7108
 30
0.0
 10
99.7657
 20
134.7108
 30
0.0
 10
99.1165
 20
135.36
 30
0.0
 10
99.1165
 20
136.1608
 30
0.0
  0
SPLINE
  5
83
330
1F
100
AcDbEntity
  8
Layer 1
370
    15
100
AcDbSpline
210
0.0
220
0.0
230
1.0
 70
    11
 71
     3
 72
    20
 73
    16
 74
     0
 42
0.0000000001
 43
0.0000000001
 12
1.0
 22
0.0
 32
0.0
 13
1.0
 23
0.0
 33
0.0
 40
0.0
 40
0.0
 40
0.0
 40
0.0
 40
0.2
 40
0.2
 40
0.2
 40
0.2
 40
0.4
 40
0.4
 40
0.4
 40
0.4
 40
0.6
 40
0.6
 40
0.6
 40
0.6
 40
1.0
 40
1.0
 40
1.0
 40
1.0
 10
41.1165
 20
136.1608
 30
0.0
 10
41.1165
 20
136.9616
 30
0.0
 10
41.7657
 20
137.6108
 30
0.0
 10
42.5665
 20
137.6108
 30
0.0
 10
42.5665
 20
137.6108
 30
0.0
 10
43.3673
 20
137.6108
 30
0.0
 10
44.0165
 20
136.9616
 30
0.0
 10
44.0165
 20
136.1608
 30
0.0
 10
44.0165
 20
136.1608
 30
0.0
 10
44.0165
 20
135.36
 30
0.0
 10
43.3673
 20
134.7108
 30
0.0
 10
42.5665
 20
134.7108
 30
0.0
 10
42.5665
 20
134.7108
 30
0.0
 10
41.7657
 20
134.7108
 30
0.0
 10
41.1165
 20
135.36
 30
0.0
 10
41.1165
 20
136.1608
 30
0.0
  0
SPLINE
  5
84
330
1F
100
AcDbEntity
  8
Layer 1
370
    15
100
AcDbSpline
210
0.0
220
0.0
230
1.0
 70
    11
 71
     3
 72
    20
 73
    16
 74
     0
 42
0.0000000001
 43
0.0000000001
 12
1.0
 22
0.0
 32
0.0
 13
1.0
 23
0.0
 33
0.0
 40
0.0
 40
0.0
 40
0.0
 40
0.0
 40
0.2
 40
0.2
 40
0.2
 40
0.2
 40
0.4
 40
0.4
 40
0.4
 40
0.4
 40
0.6
 40
0.6
 40
0.6
 40
0.6
 40
1.0
 40
1.0
 40
1.0
 40
1.0
 10
-16.8835
 20
136.1608
 30
0.0
 10
-16.8835
 20
136.9616
 30
0.0
 10
-16.2343
 20
137.6108
 30
0.0
 10
-15.4335
 20
137.6108
 30
0.0
 10
-15.4335
 20
137.6108
 30
0.0
 10
-14.6327
 20
137.6108
 30
0.0
 10
-13.9835
 20
136.9616
 30
0.0
 10
-13.9835
 20
136.1608
 30
0.0
 10
-13.9835
 20
136.1608
 30
0.0
 10
-13.9835
 20
135.36
 30
0.0
 10
-14.6327
 20
134.7108
 30
0.0
 10
-15.4335
 20
134.7108
 30
0.0
 10
-15.4335
 20
134.7108
 30
0.0
 10
-16.2343
 20
134.7108
 30
0.0
 10
-16.8835
 20
135.36
 30
0.0
 10
-16.8835
 20
136.1608
 30
0.0
  0
SPLINE
  5
85
330
1F
100
AcDbEntity
  8
Layer 1
370
    15
100
AcDbSpline
210
0.0
220
0.0
230
1.0
 70
    11
 71
     3
 72
    20
 73
    16
 74
     0
 42
0.0000000001
 43
0.0000000001
 12
1.0
 22
0.0
 32
0.0
 13
1.0
 23
0.0
 33
0.0
 40
0.0
 40
0.0
 40
0.0
 40
0.0
 40
0.2
 40
0.2
 40
0.2
 40
0.2
 40
0.4
 40
0.4
 40
0.4
 40
0.4
 40
0.6
 40
0.6
 40
0.6
 40
0.6
 40
1.0
 40
1.0
 40
1.0
 40
1.0
 10
-74.8835
 20
136.1608
 30
0.0
 10
-74.8835
 20
136.9616
 30
0.0
 10
-74.2343
 20
137.6108
 30
0.0
 10
-73.4335
 20
137.6108
 30
0.0
 10
-73.4335
 20
137.6108
 30
0.0
 10
-72.6327
 20
137.6108
 30
0.0
 10
-71.9835
 20
136.9616
 30
0.0
 10
-71.9835
 20
136.1608
 30
0.0
 10
-71.9835
 20
136.1608
 30
0.0
 10
-71.9835
 20
135.36
 30
0.0
 10
-72.6327
 20
134.7108
 30
0.0
 10
-73.4335
 20
134.7108
 30
0.0
 10
-73.4335
 20
134.7108
 30
0.0
 10
-74.2343
 20
134.7108
 30
0.0
 10
-74.8835
 20
135.36
 30
0.0
 10
-74.8835
 20
136.1608
 30
0.0
  0
SPLINE
  5
86
330
1F
100
AcDbEntity
  8
Layer 1
370
    15
100
AcDbSpline
210
0.0
220
0.0
230
1.0
 70
    11
 71
     3
 72
    20
 73
    16
 74
     0
 42
0.0000000001
 43
0.0000000001
 12
1.0
 22
0.0
 32
0.0
 13
1.0
 23
0.0
 33
0.0
 40
0.0
 40
0.0
 40
0.0
 40
0.0
 40
0.2
 40
0.2
 40
0.2
 40
0.2
 40
0.4
 40
0.4
 40
0.4
 40
0.4
 40
0.6
 40
0.6
 40
0.6
 40
0.6
 40
1.0
 40
1.0
 40
1.0
 40
1.0
 10
-161.4725
 20
127.4472
 30
0.0
 10
-161.4725
 20
128.248
 30
0.0
 10
-160.8233
 20
128.8972
 30
0.0
 10
-160.0225
 20
128.8972
 30
0.0
 10
-160.0225
 20
128.8972
 30
0.0
 10
-159.2217
 20
128.8972
 30
0.0
 10
-158.5725
 20
128.248
 30
0.0
 10
-158.5725
 20
127.4472
 30
0.0
 10
-158.5725
 20
127.4472
 30
0.0
 10
-158.5725
 20
126.6464
 30
0.0
 10
-159.2217
 20
125.9972
 30
0.0
 10
-160.0225
 20
125.9972
 30
0.0
 10
-160.0225
 20
125.9972
 30
0.0
 10
-160.8233
 20
125.9972
 30
0.0
 10
-161.4725
 20
126.6464
 30
0.0
 10
-161.4725
 20
127.4472
 30
0.0
  0
SPLINE
  5
87
330
1F
100
AcDbEntity
  8
Layer 1
370
    15
100
AcDbSpline
210
0.0
220
0.0
230
1.0
 70
    11
 71
     3
 72
    20
 73
    16
 74
     0
 42
0.0000000001
 43
0.0000000001
 12
1.0
 22
0.0
 32
0.0
 13
1.0
 23
0.0
 33
0.0
 40
0.0
 40
0.0
 40
0.0
 40
0.0
 40
0.2
 40
0.2
 40
0.2
 40
0.2
 40
0.4
 40
0.4
 40
0.4
 40
0.4
 40
0.6
 40
0.6
 40
0.6
 40
0.6
 40
1.0
 40
1.0
 40
1.0
 40
1.0
 10
273.1165
 20
136.1608
 30
0.0
 10
273.1165
 20
136.9616
 30
0.0
 10
273.7657
 20
137.6108
 30
0.0
 10
274.5665
 20
137.6108
 30
0.0
 10
274.5665
 20
137.6108
 30
0.0
 10
275.3673
 20
137.6108
 30
0.0
 10
276.0165
 20
136.9616
 30
0.0
 10
276.0165
 20
136.1608
 30
0.0
 10
276.0165
 20
136.1608
 30
0.0
 10
276.0165
 20
135.36
 30
0.0
 10
275.3673
 20
134.7108
 30
0.0
 10
274.5665
 20
134.7108
 30
0.0
 10
274.5665
 20
134.7108
 30
0.0
 10
273.7657
 20
134.7108
 30
0.0
 10
273.1165
 20
135.36
 30
0.0
 10
273.1165
 20
136.1608
 30
0.0
  0
SPLINE
  5
88
330
1F
100
AcDbEntity
  8
Layer 1
370
    15
100
AcDbSpline
210
0.0
220
0.0
230
1.0
 70
    11
 71
     3
 72
    20
 73
    16
 74
     0
 42
0.0000000001
 43
0.0000000001
 12
1.0
 22
0.0
 32
0.0
 13
1.0
 23
0.0
 33
0.0
 40
0.0
 40
0.0
 40
0.0
 40
0.0
 40
0.2
 40
0.2
 40
0.2
 40
0.2
 40
0.4
 40
0.4
 40
0.4
 40
0.4
 40
0.6
 40
0.6
 40
0.6
 40
0.6
 40
1.0
 40
1.0
 40
1.0
 40
1.0
 10
282.6015
 20
27.778
 30
0.0
 10
282.6015
 20
28.5788
 30
0.0
 10
281.9523
 20
29.228
 30
0.0
 10
281.1515
 20
29.228
 30
0.0
 10
281.1515
 20
29.228
 30
0.0
 10
280.3507
 20
29.228
 30
0.0
 10
279.7015
 20
28.5788
 30
0.0
 10
279.7015
 20
27.778
 30
0.0
 10
279.7015
 20
27.778
 30
0.0
 10
279.7015
 20
26.9772
 30
0.0
 10
280.3507
 20
26.328
 30
0.0
 10
281.1515
 20
26.328
 30
0.0
 10
281.1515
 20
26.328
 30
0.0
 10
281.9523
 20
26.328
 30
0.0
 10
282.6015
 20
26.9771
 30
0.0
 10
282.6015
 20
27.778
 30
0.0
  0
SPLINE
  5
89
330
1F
100
AcDbEntity
  8
Layer 1
370
    15
100
AcDbSpline
210
0.0
220
0.0
230
1.0
 70
    11
 71
     3
 72
    20
 73
    16
 74
     0
 42
0.0000000001
 43
0.0000000001
 12
1.0
 22
0.0
 32
0.0
 13
1.0
 23
0.0
 33
0.0
 40
0.0
 40
0.0
 40
0.0
 40
0.0
 40
0.2
 40
0.2
 40
0.2
 40
0.2
 40
0.4
 40
0.4
 40
0.4
 40
0.4
 40
0.6
 40
0.6
 40
0.6
 40
0.6
 40
1.0
 40
1.0
 40
1.0
 40
1.0
 10
224.6094
 20
36.4764
 30
0.0
 10
224.6094
 20
37.2772
 30
0.0
 10
223.9602
 20
37.9264
 30
0.0
 10
223.1594
 20
37.9264
 30
0.0
 10
223.1594
 20
37.9264
 30
0.0
 10
222.3586
 20
37.9264
 30
0.0
 10
221.7094
 20
37.2772
 30
0.0
 10
221.7094
 20
36.4764
 30
0.0
 10
221.7094
 20
36.4764
 30
0.0
 10
221.7094
 20
35.6756
 30
0.0
 10
222.3586
 20
35.0264
 30
0.0
 10
223.1594
 20
35.0264
 30
0.0
 10
223.1594
 20
35.0264
 30
0.0
 10
223.9602
 20
35.0264
 30
0.0
 10
224.6094
 20
35.6756
 30
0.0
 10
224.6094
 20
36.4764
 30
0.0
  0
SPLINE
  5
8A
330
1F
100
AcDbEntity
  8
Layer 1
370
    15
100
AcDbSpline
210
0.0
220
0.0
230
1.0
 70
    11
 71
     3
 72
    20
 73
    16
 74
     0
 42
0.0000000001
 43
0.0000000001
 12
1.0
 22
0.0
 32
0.0
 13
1.0
 23
0.0
 33
0.0
 40
0.0
 40
0.0
 40
0.0
 40
0.0
 40
0.2
 40
0.2
 40
0.2
 40
0.2
 40
0.4
 40
0.4
 40
0.4
 40
0.4
 40
0.6
 40
0.6
 40
0.6
 40
0.6
 40
1.0
 40
1.0
 40
1.0
 40
1.0
 10
138.0165
 20
40.8408
 30
0.0
 10
138.0165
 20
41.6416
 30
0.0
 10
137.3673
 20
42.2908
 30
0.0
 10
136.5665
 20
42.2908
 30
0.0
 10
136.5665
 20
42.2908
 30
0.0
 10
135.7657
 20
42.2908
 30
0.0
 10
135.1165
 20
41.6416
 30
0.0
 10
135.1165
 20
40.8408
 30
0.0
 10
135.1165
 20
40.8408
 30
0.0
 10
135.1165
 20
40.04
 30
0.0
 10
135.7657
 20
39.3908
 30
0.0
 10
136.5665
 20
39.3908
 30
0.0
 10
136.5665
 20
39.3908
 30
0.0
 10
137.3673
 20
39.3908
 30
0.0
 10
138.0165
 20
40.04
 30
0.0
 10
138.0165
 20
40.8408
 30
0.0
  0
SPLINE
  5
8B
330
1F
100
AcDbEntity
  8
Layer 1
370
    15
100
AcDbSpline
210
0.0
220
0.0
230
1.0
 70
    11
 71
     3
 72
    20
 73
    16
 74
     0
 42
0.0000000001
 43
0.0000000001
 12
1.0
 22
0.0
 32
0.0
 13
1.0
 23
0.0
 33
0.0
 40
0.0
 40
0.0
 40
0.0
 40
0.0
 40
0.2
 40
0.2
 40
0.2
 40
0.2
 40
0.4
 40
0.4
 40
0.4
 40
0.4
 40
0.6
 40
0.6
 40
0.6
 40
0.6
 40
1.0
 40
1.0
 40
1.0
 40
1.0
 10
80.0165
 20
40.8408
 30
0.0
 10
80.0165
 20
41.6416
 30
0.0
 10
79.3673
 20
42.2908
 30
0.0
 10
78.5665
 20
42.2908
 30
0.0
 10
78.5665
 20
42.2908
 30
0.0
 10
77.7657
 20
42.2908
 30
0.0
 10
77.1165
 20
41.6416
 30
0.0
 10
77.1165
 20
40.8408
 30
0.0
 10
77.1165
 20
40.8408
 30
0.0
 10
77.1165
 20
40.04
 30
0.0
 10
77.7657
 20
39.3908
 30
0.0
 10
78.5665
 20
39.3908
 30
0.0
 10
78.5665
 20
39.3908
 30
0.0
 10
79.3673
 20
39.3908
 30
0.0
 10
80.0165
 20
40.04
 30
0.0
 10
80.0165
 20
40.8408
 30
0.0
  0
SPLINE
  5
8C
330
1F
100
AcDbEntity
  8
Layer 1
370
    15
100
AcDbSpline
210
0.0
220
0.0
230
1.0
 70
    11
 71
     3
 72
    20
 73
    16
 74
     0
 42
0.0000000001
 43
0.0000000001
 12
1.0
 22
0.0
 32
0.0
 13
1.0
 23
0.0
 33
0.0
 40
0.0
 40
0.0
 40
0.0
 40
0.0
 40
0.2
 40
0.2
 40
0.2
 40
0.2
 40
0.4
 40
0.4
 40
0.4
 40
0.4
 40
0.6
 40
0.6
 40
0.6
 40
0.6
 40
1.0
 40
1.0
 40
1.0
 40
1.0
 10
22.0165
 20
40.8408
 30
0.0
 10
22.0165
 20
41.6416
 30
0.0
 10
21.3673
 20
42.2908
 30
0.0
 10
20.5665
 20
42.2908
 30
0.0
 10
20.5665
 20
42.2908
 30
0.0
 10
19.7657
 20
42.2908
 30
0.0
 10
19.1165
 20
41.6416
 30
0.0
 10
19.1165
 20
40.8408
 30
0.0
 10
19.1165
 20
40.8408
 30
0.0
 10
19.1165
 20
40.04
 30
0.0
 10
19.7657
 20
39.3908
 30
0.0
 10
20.5665
 20
39.3908
 30
0.0
 10
20.5665
 20
39.3908
 30
0.0
 10
21.3673
 20
39.3908
 30
0.0
 10
22.0165
 20
40.04
 30
0.0
 10
22.0165
 20
40.8408
 30
0.0
  0
SPLINE
  5
8D
330
1F
100
AcDbEntity
  8
Layer 1
370
    15
100
AcDbSpline
210
0.0
220
0.0
230
1.0
 70
    11
 71
     3
 72
    20
 73
    16
 74
     0
 42
0.0000000001
 43
0.0000000001
 12
1.0
 22
0.0
 32
0.0
 13
1.0
 23
0.0
 33
0.0
 40
0.0
 40
0.0
 40
0.0
 40
0.0
 40
0.2
 40
0.2
 40
0.2
 40
0.2
 40
0.4
 40
0.4
 40
0.4
 40
0.4
 40
0.6
 40
0.6
 40
0.6
 40
0.6
 40
1.0
 40
1.0
 40
1.0
 40
1.0
 10
-35.9835
 20
40.8408
 30
0.0
 10
-35.9835
 20
41.6416
 30
0.0
 10
-36.6327
 20
42.2908
 30
0.0
 10
-37.4335
 20
42.2908
 30
0.0
 10
-37.4335
 20
42.2908
 30
0.0
 10
-38.2343
 20
42.2908
 30
0.0
 10
-38.8835
 20
41.6416
 30
0.0
 10
-38.8835
 20
40.8408
 30
0.0
 10
-38.8835
 20
40.8408
 30
0.0
 10
-38.8835
 20
40.04
 30
0.0
 10
-38.2343
 20
39.3908
 30
0.0
 10
-37.4335
 20
39.3908
 30
0.0
 10
-37.4335
 20
39.3908
 30
0.0
 10
-36.6327
 20
39.3908
 30
0.0
 10
-35.9835
 20
40.04
 30
0.0
 10
-35.9835
 20
40.8408
 30
0.0
  0
SPLINE
  5
8E
330
1F
100
AcDbEntity
  8
Layer 1
370
    15
100
AcDbSpline
210
0.0
220
0.0
230
1.0
 70
    11
 71
     3
 72
    20
 73
    16
 74
     0
 42
0.0000000001
 43
0.0000000001
 12
1.0
 22
0.0
 32
0.0
 13
1.0
 23
0.0
 33
0.0
 40
0.0
 40
0.0
 40
0.0
 40
0.0
 40
0.2
 40
0.2
 40
0.2
 40
0.2
 40
0.4
 40
0.4
 40
0.4
 40
0.4
 40
0.6
 40
0.6
 40
0.6
 40
0.6
 40
1.0
 40
1.0
 40
1.0
 40
1.0
 10
-93.9835
 20
40.8408
 30
0.0
 10
-93.9835
 20
41.6416
 30
0.0
 10
-94.6327
 20
42.2908
 30
0.0
 10
-95.4335
 20
42.2908
 30
0.0
 10
-95.4335
 20
42.2908
 30
0.0
 10
-96.2343
 20
42.2908
 30
0.0
 10
-96.8835
 20
41.6416
 30
0.0
 10
-96.8835
 20
40.8408
 30
0.0
 10
-96.8835
 20
40.8408
 30
0.0
 10
-96.8835
 20
40.04
 30
0.0
 10
-96.2343
 20
39.3908
 30
0.0
 10
-95.4335
 20
39.3908
 30
0.0
 10
-95.4335
 20
39.3908
 30
0.0
 10
-94.6327
 20
39.3908
 30
0.0
 10
-93.9835
 20
40.04
 30
0.0
 10
-93.9835
 20
40.8408
 30
0.0
  0
SPLINE
  5
8F
330
1F
100
AcDbEntity
  8
Layer 1
370
    15
100
AcDbSpline
210
0.0
220
0.0
230
1.0
 70
    11
 71
     3
 72
    20
 73
    16
 74
     0
 42
0.0000000001
 43
0.0000000001
 12
1.0
 22
0.0
 32
0.0
 13
1.0
 23
0.0
 33
0.0
 40
0.0
 40
0.0
 40
0.0
 40
0.0
 40
0.2
 40
0.2
 40
0.2
 40
0.2
 40
0.4
 40
0.4
 40
0.4
 40
0.4
 40
0.6
 40
0.6
 40
0.6
 40
0.6
 40
1.0
 40
1.0
 40
1.0
 40
1.0
 10
-151.9835
 20
40.8408
 30
0.0
 10
-151.9835
 20
41.6416
 30
0.0
 10
-152.6327
 20
42.2908
 30
0.0
 10
-153.4335
 20
42.2908
 30
0.0
 10
-153.4335
 20
42.2908
 30
0.0
 10
-154.2343
 20
42.2908
 30
0.0
 10
-154.8835
 20
41.6416
 30
0.0
 10
-154.8835
 20
40.8408
 30
0.0
 10
-154.8835
 20
40.8408
 30
0.0
 10
-154.8835
 20
40.04
 30
0.0
 10
-154.2343
 20
39.3908
 30
0.0
 10
-153.4335
 20
39.3908
 30
0.0
 10
-153.4335
 20
39.3908
 30
0.0
 10
-152.6327
 20
39.3908
 30
0.0
 10
-151.9835
 20
40.04
 30
0.0
 10
-151.9835
 20
40.8408
 30
0.0
  0
SPLINE
  5
90
330
1F
100
AcDbEntity
  8
Layer 1
370
    15
100
AcDbSpline
210
0.0
220
0.0
230
1.0
 70
    11
 71
     3
 72
    20
 73
    16
 74
     0
 42
0.0000000001
 43
0.0000000001
 12
1.0
 22
0.0
 32
0.0
 13
1.0
 23
0.0
 33
0.0
 40
0.0
 40
0.0
 40
0.0
 40
0.0
 40
0.2
 40
0.2
 40
0.2
 40
0.2
 40
0.4
 40
0.4
 40
0.4
 40
0.4
 40
0.6
 40
0.6
 40
0.6
 40
0.6
 40
1.0
 40
1.0
 40
1.0
 40
1.0
 10
210.2257
 20
-38.9347
 30
0.0
 10
210.2257
 20
-38.1986
 30
0.0
 10
209.629
 20
-37.6019
 30
0.0
 10
208.8929
 20
-37.6019
 30
0.0
 10
208.8929
 20
-37.6019
 30
0.0
 10
208.1568
 20
-37.6019
 30
0.0
 10
207.5601
 20
-38.1986
 30
0.0
 10
207.5601
 20
-38.9347
 30
0.0
 10
207.5601
 20
-38.9347
 30
0.0
 10
207.5601
 20
-39.6707
 30
0.0
 10
208.1568
 20
-40.2674
 30
0.0
 10
208.8929
 20
-40.2674
 30
0.0
 10
208.8929
 20
-40.2674
 30
0.0
 10
209.6289
 20
-40.2674
 30
0.0
 10
210.2257
 20
-39.6708
 30
0.0
 10
210.2257
 20
-38.9347
 30
0.0
  0
SPLINE
  5
91
330
1F
100
AcDbEntity
  8
Layer 1
370
    15
100
AcDbSpline
210
0.0
220
0.0
230
1.0
 70
    11
 71
     3
 72
    20
 73
    16
 74
     0
 42
0.0000000001
 43
0.0000000001
 12
1.0
 22
0.0
 32
0.0
 13
1.0
 23
0.0
 33
0.0
 40
0.0
 40
0.0
 40
0.0
 40
0.0
 40
0.2
 40
0.2
 40
0.2
 40
0.2
 40
0.4
 40
0.4
 40
0.4
 40
0.4
 40
0.6
 40
0.6
 40
0.6
 40
0.6
 40
1.0
 40
1.0
 40
1.0
 40
1.0
 10
239.3295
 20
-34.5869
 30
0.0
 10
239.3295
 20
-33.7861
 30
0.0
 10
238.6803
 20
-33.1369
 30
0.0
 10
237.8795
 20
-33.1369
 30
0.0
 10
237.8795
 20
-33.1369
 30
0.0
 10
237.0787
 20
-33.1369
 30
0.0
 10
236.4295
 20
-33.7861
 30
0.0
 10
236.4295
 20
-34.5869
 30
0.0
 10
236.4295
 20
-34.5869
 30
0.0
 10
236.4295
 20
-35.3877
 30
0.0
 10
237.0787
 20
-36.0369
 30
0.0
 10
237.8795
 20
-36.0369
 30
0.0
 10
237.8795
 20
-36.0369
 30
0.0
 10
238.6803
 20
-36.0369
 30
0.0
 10
239.3295
 20
-35.3877
 30
0.0
 10
239.3295
 20
-34.5869
 30
0.0
  0
SPLINE
  5
92
330
1F
100
AcDbEntity
  8
Layer 1
370
    15
100
AcDbSpline
210
0.0
220
0.0
230
1.0
 70
    11
 71
     3
 72
    20
 73
    16
 74
     0
 42
0.0000000001
 43
0.0000000001
 12
1.0
 22
0.0
 32
0.0
 13
1.0
 23
0.0
 33
0.0
 40
0.0
 40
0.0
 40
0.0
 40
0.0
 40
0.2
 40
0.2
 40
0.2
 40
0.2
 40
0.4
 40
0.4
 40
0.4
 40
0.4
 40
0.6
 40
0.6
 40
0.6
 40
0.6
 40
1.0
 40
1.0
 40
1.0
 40
1.0
 10
152.2621
 20
-41.1592
 30
0.0
 10
152.2621
 20
-40.4177
 30
0.0
 10
151.661
 20
-39.8167
 30
0.0
 10
150.9196
 20
-39.8167
 30
0.0
 10
150.9196
 20
-39.8167
 30
0.0
 10
150.1781
 20
-39.8167
 30
0.0
 10
149.5771
 20
-40.4177
 30
0.0
 10
149.5771
 20
-41.1592
 30
0.0
 10
149.5771
 20
-41.1592
 30
0.0
 10
149.5771
 20
-41.9006
 30
0.0
 10
150.1781
 20
-42.5017
 30
0.0
 10
150.9196
 20
-42.5017
 30
0.0
 10
150.9196
 20
-42.5017
 30
0.0
 10
151.661
 20
-42.5017
 30
0.0
 10
152.2621
 20
-41.9007
 30
0.0
 10
152.2621
 20
-41.1592
 30
0.0
  0
SPLINE
  5
93
330
1F
100
AcDbEntity
  8
Layer 1
370
    15
100
AcDbSpline
210
0.0
220
0.0
230
1.0
 70
    11
 71
     3
 72
    20
 73
    16
 74
     0
 42
0.0000000001
 43
0.0000000001
 12
1.0
 22
0.0
 32
0.0
 13
1.0
 23
0.0
 33
0.0
 40
0.0
 40
0.0
 40
0.0
 40
0.0
 40
0.2
 40
0.2
 40
0.2
 40
0.2
 40
0.4
 40
0.4
 40
0.4
 40
0.4
 40
0.6
 40
0.6
 40
0.6
 40
0.6
 40
1.0
 40
1.0
 40
1.0
 40
1.0
 10
94.3083
 20
-41.1592
 30
0.0
 10
94.3083
 20
-40.407
 30
0.0
 10
93.6985
 20
-39.7972
 30
0.0
 10
92.9463
 20
-39.7972
 30
0.0
 10
92.9463
 20
-39.7972
 30
0.0
 10
92.1941
 20
-39.7972
 30
0.0
 10
91.5843
 20
-40.407
 30
0.0
 10
91.5843
 20
-41.1592
 30
0.0
 10
91.5843
 20
-41.1592
 30
0.0
 10
91.5843
 20
-41.9114
 30
0.0
 10
92.1941
 20
-42.5212
 30
0.0
 10
92.9463
 20
-42.5212
 30
0.0
 10
92.9463
 20
-42.5212
 30
0.0
 10
93.6985
 20
-42.5212
 30
0.0
 10
94.3083
 20
-41.9114
 30
0.0
 10
94.3083
 20
-41.1592
 30
0.0
  0
SPLINE
  5
94
330
1F
100
AcDbEntity
  8
Layer 1
370
    15
100
AcDbSpline
210
0.0
220
0.0
230
1.0
 70
    11
 71
     3
 72
    20
 73
    16
 74
     0
 42
0.0000000001
 43
0.0000000001
 12
1.0
 22
0.0
 32
0.0
 13
1.0
 23
0.0
 33
0.0
 40
0.0
 40
0.0
 40
0.0
 40
0.0
 40
0.2
 40
0.2
 40
0.2
 40
0.2
 40
0.4
 40
0.4
 40
0.4
 40
0.4
 40
0.6
 40
0.6
 40
0.6
 40
0.6
 40
1.0
 40
1.0
 40
1.0
 40
1.0
 10
36.3546
 20
-41.1592
 30
0.0
 10
36.3546
 20
-40.3962
 30
0.0
 10
35.736
 20
-39.7776
 30
0.0
 10
34.973
 20
-39.7776
 30
0.0
 10
34.973
 20
-39.7776
 30
0.0
 10
34.21
 20
-39.7776
 30
0.0
 10
33.5915
 20
-40.3962
 30
0.0
 10
33.5915
 20
-41.1592
 30
0.0
 10
33.5915
 20
-41.1592
 30
0.0
 10
33.5915
 20
-41.9222
 30
0.0
 10
34.21
 20
-42.5408
 30
0.0
 10
34.973
 20
-42.5408
 30
0.0
 10
34.973
 20
-42.5408
 30
0.0
 10
35.736
 20
-42.5408
 30
0.0
 10
36.3546
 20
-41.9222
 30
0.0
 10
36.3546
 20
-41.1592
 30
0.0
  0
SPLINE
  5
95
330
1F
100
AcDbEntity
  8
Layer 1
370
    15
100
AcDbSpline
210
0.0
220
0.0
230
1.0
 70
    11
 71
     3
 72
    20
 73
    16
 74
     0
 42
0.0000000001
 43
0.0000000001
 12
1.0
 22
0.0
 32
0.0
 13
1.0
 23
0.0
 33
0.0
 40
0.0
 40
0.0
 40
0.0
 40
0.0
 40
0.2
 40
0.2
 40
0.2
 40
0.2
 40
0.4
 40
0.4
 40
0.4
 40
0.4
 40
0.6
 40
0.6
 40
0.6
 40
0.6
 40
1.0
 40
1.0
 40
1.0
 40
1.0
 10
-21.5992
 20
-41.1592
 30
0.0
 10
-21.5992
 20
-40.3854
 30
0.0
 10
-22.2265
 20
-39.7581
 30
0.0
 10
-23.0003
 20
-39.7581
 30
0.0
 10
-23.0003
 20
-39.7581
 30
0.0
 10
-23.7741
 20
-39.7581
 30
0.0
 10
-24.4014
 20
-40.3854
 30
0.0
 10
-24.4014
 20
-41.1592
 30
0.0
 10
-24.4014
 20
-41.1592
 30
0.0
 10
-24.4014
 20
-41.933
 30
0.0
 10
-23.7741
 20
-42.5603
 30
0.0
 10
-23.0003
 20
-42.5603
 30
0.0
 10
-23.0003
 20
-42.5603
 30
0.0
 10
-22.2265
 20
-42.5603
 30
0.0
 10
-21.5992
 20
-41.933
 30
0.0
 10
-21.5992
 20
-41.1592
 30
0.0
  0
SPLINE
  5
96
330
1F
100
AcDbEntity
  8
Layer 1
370
    15
100
AcDbSpline
210
0.0
220
0.0
230
1.0
 70
    11
 71
     3
 72
    20
 73
    16
 74
     0
 42
0.0000000001
 43
0.0000000001
 12
1.0
 22
0.0
 32
0.0
 13
1.0
 23
0.0
 33
0.0
 40
0.0
 40
0.0
 40
0.0
 40
0.0
 40
0.2
 40
0.2
 40
0.2
 40
0.2
 40
0.4
 40
0.4
 40
0.4
 40
0.4
 40
0.6
 40
0.6
 40
0.6
 40
0.6
 40
1.0
 40
1.0
 40
1.0
 40
1.0
 10
-79.5529
 20
-41.1592
 30
0.0
 10
-79.5529
 20
-40.3746
 30
0.0
 10
-80.189
 20
-39.7386
 30
0.0
 10
-80.9736
 20
-39.7386
 30
0.0
 10
-80.9736
 20
-39.7386
 30
0.0
 10
-81.7582
 20
-39.7386
 30
0.0
 10
-82.3942
 20
-40.3746
 30
0.0
 10
-82.3942
 20
-41.1592
 30
0.0
 10
-82.3942
 20
-41.1592
 30
0.0
 10
-82.3942
 20
-41.9438
 30
0.0
 10
-81.7582
 20
-42.5798
 30
0.0
 10
-80.9736
 20
-42.5798
 30
0.0
 10
-80.9736
 20
-42.5798
 30
0.0
 10
-80.189
 20
-42.5799
 30
0.0
 10
-79.5529
 20
-41.9438
 30
0.0
 10
-79.5529
 20
-41.1592
 30
0.0
  0
SPLINE
  5
97
330
1F
100
AcDbEntity
  8
Layer 1
370
    15
100
AcDbSpline
210
0.0
220
0.0
230
1.0
 70
    11
 71
     3
 72
    20
 73
    16
 74
     0
 42
0.0000000001
 43
0.0000000001
 12
1.0
 22
0.0
 32
0.0
 13
1.0
 23
0.0
 33
0.0
 40
0.0
 40
0.0
 40
0.0
 40
0.0
 40
0.2
 40
0.2
 40
0.2
 40
0.2
 40
0.4
 40
0.4
 40
0.4
 40
0.4
 40
0.6
 40
0.6
 40
0.6
 40
0.6
 40
1.0
 40
1.0
 40
1.0
 40
1.0
 10
-137.5066
 20
-41.1592
 30
0.0
 10
-137.5066
 20
-40.3638
 30
0.0
 10
-138.1514
 20
-39.719
 30
0.0
 10
-138.9469
 20
-39.719
 30
0.0
 10
-138.9469
 20
-39.719
 30
0.0
 10
-139.7423
 20
-39.719
 30
0.0
 10
-140.3871
 20
-40.3638
 30
0.0
 10
-140.3871
 20
-41.1592
 30
0.0
 10
-140.3871
 20
-41.1592
 30
0.0
 10
-140.3871
 20
-41.9546
 30
0.0
 10
-139.7423
 20
-42.5994
 30
0.0
 10
-138.9469
 20
-42.5994
 30
0.0
 10
-138.9469
 20
-42.5994
 30
0.0
 10
-138.1515
 20
-42.5994
 30
0.0
 10
-137.5066
 20
-41.9546
 30
0.0
 10
-137.5066
 20
-41.1592
 30
0.0
  0
SPLINE
  5
98
330
1F
100
AcDbEntity
  8
Layer 1
370
    15
100
AcDbSpline
210
0.0
220
0.0
230
1.0
 70
    24
 71
     3
 72
     8
 73
     4
 74
     0
 42
0.0000000001
 43
0.0000000001
 12
1.0
 22
0.0
 32
0.0
 13
1.0
 23
0.0
 33
0.0
 40
0.0
 40
0.0
 40
0.0
 40
0.0
 40
1.0
 40
1.0
 40
1.0
 40
1.0
 10
-201.9335
 20
47.8407
 30
0.0
 10
-201.9335
 20
47.8407
 30
0.0
 10
-201.9335
 20
1.2908
 30
0.0
 10
-201.9335
 20
1.2908
 30
0.0
  0
SPLINE
  5
99
330
1F
100
AcDbEntity
  8
Layer 1
370
    15
100
AcDbSpline
210
0.0
220
0.0
230
1.0
 70
    24
 71
     3
 72
     8
 73
     4
 74
     0
 42
0.0000000001
 43
0.0000000001
 12
1.0
 22
0.0
 32
0.0
 13
1.0
 23
0.0
 33
0.0
 40
0.0
 40
0.0
 40
0.0
 40
0.0
 40
1.0
 40
1.0
 40
1.0
 40
1.0
 10
-201.9335
 20
1.2908
 30
0.0
 10
-201.9335
 20
1.2908
 30
0.0
 10
-51.9335
 20
1.2908
 30
0.0
 10
-51.9335
 20
1.2908
 30
0.0
  0
SPLINE
  5
9A
330
1F
100
AcDbEntity
  8
Layer 1
370
    15
100
AcDbSpline
210
0.0
220
0.0
230
1.0
 70
    24
 71
     3
 72
     8
 73
     4
 74
     0
 42
0.0000000001
 43
0.0000000001
 12
1.0
 22
0.0
 32
0.0
 13
1.0
 23
0.0
 33
0.0
 40
0.0
 40
0.0
 40
0.0
 40
0.0
 40
1.0
 40
1.0
 40
1.0
 40
1.0
 10
-51.9335
 20
1.2908
 30
0.0
 10
-51.9335
 20
1.2908
 30
0.0
 10
-51.9335
 20
25.8408
 30
0.0
 10
-51.9335
 20
25.8408
 30
0.0
  0
SPLINE
  5
9B
330
1F
100
AcDbEntity
  8
Layer 1
370
    15
100
AcDbSpline
210
0.0
220
0.0
230
1.0
 70
    24
 71
     3
 72
     8
 73
     4
 74
     0
 42
0.0000000001
 43
0.0000000001
 12
1.0
 22
0.0
 32
0.0
 13
1.0
 23
0.0
 33
0.0
 40
0.0
 40
0.0
 40
0.0
 40
0.0
 40
1.0
 40
1.0
 40
1.0
 40
1.0
 10
-51.9335
 20
25.8408
 30
0.0
 10
-51.9335
 20
25.8408
 30
0.0
 10
-48.9335
 20
25.8408
 30
0.0
 10
-48.9335
 20
25.8408
 30
0.0
  0
SPLINE
  5
9C
330
1F
100
AcDbEntity
  8
Layer 1
370
    15
100
AcDbSpline
210
0.0
220
0.0
230
1.0
 70
    24
 71
     3
 72
     8
 73
     4
 74
     0
 42
0.0000000001
 43
0.0000000001
 12
1.0
 22
0.0
 32
0.0
 13
1.0
 23
0.0
 33
0.0
 40
0.0
 40
0.0
 40
0.0
 40
0.0
 40
1.0
 40
1.0
 40
1.0
 40
1.0
 10
-48.9335
 20
25.8408
 30
0.0
 10
-48.9335
 20
25.8408
 30
0.0
 10
-48.9335
 20
1.2908
 30
0.0
 10
-48.9335
 20
1.2908
 30
0.0
  0
SPLINE
  5
9D
330
1F
100
AcDbEntity
  8
Layer 1
370
    15
100
AcDbSpline
210
0.0
220
0.0
230
1.0
 70
    24
 71
     3
 72
     8
 73
     4
 74
     0
 42
0.0000000001
 43
0.0000000001
 12
1.0
 22
0.0
 32
0.0
 13
1.0
 23
0.0
 33
0.0
 40
0.0
 40
0.0
 40
0.0
 40
0.0
 40
1.0
 40
1.0
 40
1.0
 40
1.0
 10
-48.9335
 20
1.2908
 30
0.0
 10
-48.9335
 20
1.2908
 30
0.0
 10
58.0665
 20
1.2908
 30
0.0
 10
58.0665
 20
1.2908
 30
0.0
  0
SPLINE
  5
9E
330
1F
100
AcDbEntity
  8
Layer 1
370
    15
100
AcDbSpline
210
0.0
220
0.0
230
1.0
 70
    24
 71
     3
 72
     8
 73
     4
 74
     0
 42
0.0000000001
 43
0.0000000001
 12
1.0
 22
0.0
 32
0.0
 13
1.0
 23
0.0
 33
0.0
 40
0.0
 40
0.0
 40
0.0
 40
0.0
 40
1.0
 40
1.0
 40
1.0
 40
1.0
 10
58.0665
 20
1.2908
 30
0.0
 10
58.0665
 20
1.2908
 30
0.0
 10
58.0665
 20
-1.6092
 30
0.0
 10
58.0665
 20
-1.6092
 30
0.0
  0
SPLINE
  5
9F
330
1F
100
AcDbEntity
  8
Layer 1
370
    15
100
AcDbSpline
210
0.0
220
0.0
230
1.0
 70
    24
 71
     3
 72
     8
 73
     4
 74
     0
 42
0.0000000001
 43
0.0000000001
 12
1.0
 22
0.0
 32
0.0
 13
1.0
 23
0.0
 33
0.0
 40
0.0
 40
0.0
 40
0.0
 40
0.0
 40
1.0
 40
1.0
 40
1.0
 40
1.0
 10
58.0665
 20
-1.6092
 30
0.0
 10
58.0665
 20
-1.6092
 30
0.0
 10
-48.9335
 20
-1.6092
 30
0.0
 10
-48.9335
 20
-1.6092
 30
0.0
  0
SPLINE
  5
A0
330
1F
100
AcDbEntity
  8
Layer 1
370
    15
100
AcDbSpline
210
0.0
220
0.0
230
1.0
 70
    24
 71
     3
 72
     8
 73
     4
 74
     0
 42
0.0000000001
 43
0.0000000001
 12
1.0
 22
0.0
 32
0.0
 13
1.0
 23
0.0
 33
0.0
 40
0.0
 40
0.0
 40
0.0
 40
0.0
 40
1.0
 40
1.0
 40
1.0
 40
1.0
 10
-48.9335
 20
-1.6092
 30
0.0
 10
-48.9335
 20
-1.6092
 30
0.0
 10
-48.9335
 20
-26.1592
 30
0.0
 10
-48.9335
 20
-26.1592
 30
0.0
  0
SPLINE
  5
A1
330
1F
100
AcDbEntity
  8
Layer 1
370
    15
100
AcDbSpline
210
0.0
220
0.0
230
1.0
 70
    24
 71
     3
 72
     8
 73
     4
 74
     0
 42
0.0000000001
 43
0.0000000001
 12
1.0
 22
0.0
 32
0.0
 13
1.0
 23
0.0
 33
0.0
 40
0.0
 40
0.0
 40
0.0
 40
0.0
 40
1.0
 40
1.0
 40
1.0
 40
1.0
 10
-48.9335
 20
-26.1592
 30
0.0
 10
-48.9335
 20
-26.1592
 30
0.0
 10
-51.9335
 20
-26.1592
 30
0.0
 10
-51.9335
 20
-26.1592
 30
0.0
  0
SPLINE
  5
A2
330
1F
100
AcDbEntity
  8
Layer 1
370
    15
100
AcDbSpline
210
0.0
220
0.0
230
1.0
 70
    24
 71
     3
 72
     8
 73
     4
 74
     0
 42
0.0000000001
 43
0.0000000001
 12
1.0
 22
0.0
 32
0.0
 13
1.0
 23
0.0
 33
0.0
 40
0.0
 40
0.0
 40
0.0
 40
0.0
 40
1.0
 40
1.0
 40
1.0
 40
1.0
 10
-51.9335
 20
-26.1592
 30
0.0
 10
-51.9335
 20
-26.1592
 30
0.0
 10
-51.9335
 20
-1.6092
 30
0.0
 10
-51.9335
 20
-1.6092
 30
0.0
  0
SPLINE
  5
A3
330
1F
100
AcDbEntity
  8
Layer 1
370
    15
100
AcDbSpline
210
0.0
220
0.0
230
1.0
 70
    24
 71
     3
 72
     8
 73
     4
 74
     0
 42
0.0000000001
 43
0.0000000001
 12
1.0
 22
0.0
 32
0.0
 13
1.0
 23
0.0
 33
0.0
 40
0.0
 40
0.0
 40
0.0
 40
0.0
 40
1.0
 40
1.0
 40
1.0
 40
1.0
 10
-51.9335
 20
-1.6092
 30
0.0
 10
-51.9335
 20
-1.6092
 30
0.0
 10
-201.9335
 20
-1.6092
 30
0.0
 10
-201.9335
 20
-1.6092
 30
0.0
  0
SPLINE
  5
A4
330
1F
100
AcDbEntity
  8
Layer 1
370
    15
100
AcDbSpline
210
0.0
220
0.0
230
1.0
 70
    24
 71
     3
 72
     8
 73
     4
 74
     0
 42
0.0000000001
 43
0.0000000001
 12
1.0
 22
0.0
 32
0.0
 13
1.0
 23
0.0
 33
0.0
 40
0.0
 40
0.0
 40
0.0
 40
0.0
 40
1.0
 40
1.0
 40
1.0
 40
1.0
 10
-201.9335
 20
-1.6092
 30
0.0
 10
-201.9335
 20
-1.6092
 30
0.0
 10
-201.9335
 20
-38.1592
 30
0.0
 10
-201.9335
 20
-38.1592
 30
0.0
  0
SPLINE
  5
A5
330
1F
100
AcDbEntity
  8
Layer 1
370
    15
100
AcDbSpline
210
0.0
220
0.0
230
1.0
 70
    24
 71
     3
 72
     8
 73
     4
 74
     0
 42
0.0000000001
 43
0.0000000001
 12
1.0
 22
0.0
 32
0.0
 13
1.0
 23
0.0
 33
0.0
 40
0.0
 40
0.0
 40
0.0
 40
0.0
 40
1.0
 40
1.0
 40
1.0
 40
1.0
 10
-201.9335
 20
-38.1592
 30
0.0
 10
-201.9335
 20
-38.1592
 30
0.0
 10
-191.9335
 20
-38.1592
 30
0.0
 10
-191.9335
 20
-38.1592
 30
0.0
  0
SPLINE
  5
A6
330
1F
100
AcDbEntity
  8
Layer 1
370
    15
100
AcDbSpline
210
0.0
220
0.0
230
1.0
 70
     8
 71
     3
 72
    12
 73
     8
 74
     0
 42
0.0000000001
 43
0.0000000001
 12
1.0
 22
0.0
 32
0.0
 13
1.0
 23
0.0
 33
0.0
 40
0.0
 40
0.0
 40
0.0
 40
0.0
 40
0.3333333333333333
 40
0.3333333333333333
 40
0.3333333333333333
 40
0.3333333333333333
 40
1.0
 40
1.0
 40
1.0
 40
1.0
 10
-191.9335
 20
-44.1592
 30
0.0
 10
-190.2766
 20
-44.1592
 30
0.0
 10
-188.9335
 20
-42.8161
 30
0.0
 10
-188.9335
 20
-41.1592
 30
0.0
 10
-188.9335
 20
-41.1592
 30
0.0
 10
-188.9335
 20
-39.5024
 30
0.0
 10
-190.2766
 20
-38.1592
 30
0.0
 10
-191.9335
 20
-38.1592
 30
0.0
  0
SPLINE
  5
A7
330
1F
100
AcDbEntity
  8
Layer 1
370
    15
100
AcDbSpline
210
0.0
220
0.0
230
1.0
 70
    24
 71
     3
 72
     8
 73
     4
 74
     0
 42
0.0000000001
 43
0.0000000001
 12
1.0
 22
0.0
 32
0.0
 13
1.0
 23
0.0
 33
0.0
 40
0.0
 40
0.0
 40
0.0
 40
0.0
 40
1.0
 40
1.0
 40
1.0
 40
1.0
 10
-191.9335
 20
-44.1592
 30
0.0
 10
-191.9335
 20
-44.1592
 30
0.0
 10
-201.9335
 20
-44.1592
 30
0.0
 10
-201.9335
 20
-44.1592
 30
0.0
  0
SPLINE
  5
A8
330
1F
100
AcDbEntity
  8
Layer 1
370
    15
100
AcDbSpline
210
0.0
220
0.0
230
1.0
 70
    24
 71
     3
 72
     8
 73
     4
 74
     0
 42
0.0000000001
 43
0.0000000001
 12
1.0
 22
0.0
 32
0.0
 13
1.0
 23
0.0
 33
0.0
 40
0.0
 40
0.0
 40
0.0
 40
0.0
 40
1.0
 40
1.0
 40
1.0
 40
1.0
 10
-201.9335
 20
-44.1592
 30
0.0
 10
-201.9335
 20
-44.1592
 30
0.0
 10
-201.9335
 20
-48.1591
 30
0.0
 10
-201.9335
 20
-48.1591
 30
0.0
  0
SPLINE
  5
A9
330
1F
100
AcDbEntity
  8
Layer 1
370
    15
100
AcDbSpline
210
0.0
220
0.0
230
1.0
 70
    24
 71
     3
 72
     8
 73
     4
 74
     0
 42
0.0000000001
 43
0.0000000001
 12
1.0
 22
0.0
 32
0.0
 13
1.0
 23
0.0
 33
0.0
 40
0.0
 40
0.0
 40
0.0
 40
0.0
 40
1.0
 40
1.0
 40
1.0
 40
1.0
 10
-201.9335
 20
-48.1591
 30
0.0
 10
-201.9335
 20
-48.1591
 30
0.0
 10
-182.931
 20
-48.1591
 30
0.0
 10
-182.931
 20
-48.1591
 30
0.0
  0
SPLINE
  5
AA
330
1F
100
AcDbEntity
  8
Layer 1
370
    15
100
AcDbSpline
210
0.0
220
0.0
230
1.0
 70
     8
 71
     3
 72
     8
 73
     4
 74
     0
 42
0.0000000001
 43
0.0000000001
 12
1.0
 22
0.0
 32
0.0
 13
1.0
 23
0.0
 33
0.0
 40
0.0
 40
0.0
 40
0.0
 40
0.0
 40
1.0
 40
1.0
 40
1.0
 40
1.0
 10
-182.931
 20
-48.1591
 30
0.0
 10
-182.2664
 20
-48.1591
 30
0.0
 10
-181.6022
 20
-48.126
 30
0.0
 10
-180.941
 20
-48.0599
 30
0.0
  0
SPLINE
  5
AB
330
1F
100
AcDbEntity
  8
Layer 1
370
    15
100
AcDbSpline
210
0.0
220
0.0
230
1.0
 70
    24
 71
     3
 72
     8
 73
     4
 74
     0
 42
0.0000000001
 43
0.0000000001
 12
1.0
 22
0.0
 32
0.0
 13
1.0
 23
0.0
 33
0.0
 40
0.0
 40
0.0
 40
0.0
 40
0.0
 40
1.0
 40
1.0
 40
1.0
 40
1.0
 10
-180.941
 20
-48.0599
 30
0.0
 10
-180.941
 20
-48.0599
 30
0.0
 10
-152.926
 20
-45.2585
 30
0.0
 10
-152.926
 20
-45.2585
 30
0.0
  0
SPLINE
  5
AC
330
1F
100
AcDbEntity
  8
Layer 1
370
    15
100
AcDbSpline
210
0.0
220
0.0
230
1.0
 70
     8
 71
     3
 72
     8
 73
     4
 74
     0
 42
0.0000000001
 43
0.0000000001
 12
1.0
 22
0.0
 32
0.0
 13
1.0
 23
0.0
 33
0.0
 40
0.0
 40
0.0
 40
0.0
 40
0.0
 40
1.0
 40
1.0
 40
1.0
 40
1.0
 10
-150.936
 20
-45.1592
 30
0.0
 10
-151.6006
 20
-45.1592
 30
0.0
 10
-152.2648
 20
-45.1923
 30
0.0
 10
-152.926
 20
-45.2585
 30
0.0
  0
SPLINE
  5
AD
330
1F
100
AcDbEntity
  8
Layer 1
370
    15
100
AcDbSpline
210
0.0
220
0.0
230
1.0
 70
    24
 71
     3
 72
     8
 73
     4
 74
     0
 42
0.0000000001
 43
0.0000000001
 12
1.0
 22
0.0
 32
0.0
 13
1.0
 23
0.0
 33
0.0
 40
0.0
 40
0.0
 40
0.0
 40
0.0
 40
1.0
 40
1.0
 40
1.0
 40
1.0
 10
-150.936
 20
-45.1592
 30
0.0
 10
-150.936
 20
-45.1592
 30
0.0
 10
192.4873
 20
-45.1592
 30
0.0
 10
192.4873
 20
-45.1592
 30
0.0
  0
SPLINE
  5
AE
330
1F
100
AcDbEntity
  8
Layer 1
370
    15
100
AcDbSpline
210
0.0
220
0.0
230
1.0
 70
     8
 71
     3
 72
     8
 73
     4
 74
     0
 42
0.0000000001
 43
0.0000000001
 12
1.0
 22
0.0
 32
0.0
 13
1.0
 23
0.0
 33
0.0
 40
0.0
 40
0.0
 40
0.0
 40
0.0
 40
1.0
 40
1.0
 40
1.0
 40
1.0
 10
192.4873
 20
-45.1592
 30
0.0
 10
193.5385
 20
-45.1592
 30
0.0
 10
194.588
 20
-45.0763
 30
0.0
 10
195.6261
 20
-44.9114
 30
0.0
  0
SPLINE
  5
AF
330
1F
100
AcDbEntity
  8
Layer 1
370
    15
100
AcDbSpline
210
0.0
220
0.0
230
1.0
 70
    24
 71
     3
 72
     8
 73
     4
 74
     0
 42
0.0000000001
 43
0.0000000001
 12
1.0
 22
0.0
 32
0.0
 13
1.0
 23
0.0
 33
0.0
 40
0.0
 40
0.0
 40
0.0
 40
0.0
 40
1.0
 40
1.0
 40
1.0
 40
1.0
 10
195.6261
 20
-44.9114
 30
0.0
 10
195.6261
 20
-44.9114
 30
0.0
 10
292.3804
 20
-29.5363
 30
0.0
 10
292.3804
 20
-29.5363
 30
0.0
  0
SPLINE
  5
B0
330
1F
100
AcDbEntity
  8
Layer 1
370
    15
100
AcDbSpline
210
0.0
220
0.0
230
1.0
 70
     8
 71
     3
 72
     8
 73
     4
 74
     0
 42
0.0000000001
 43
0.0000000001
 12
1.0
 22
0.0
 32
0.0
 13
1.0
 23
0.0
 33
0.0
 40
0.0
 40
0.0
 40
0.0
 40
0.0
 40
1.0
 40
1.0
 40
1.0
 40
1.0
 10
292.3804
 20
-29.5363
 30
0.0
 10
293.3516
 20
-29.382
 30
0.0
 10
294.0665
 20
-28.5445
 30
0.0
 10
294.0665
 20
-27.5611
 30
0.0
  0
SPLINE
  5
B1
330
1F
100
AcDbEntity
  8
Layer 1
370
    15
100
AcDbSpline
210
0.0
220
0.0
230
1.0
 70
    24
 71
     3
 72
     8
 73
     4
 74
     0
 42
0.0000000001
 43
0.0000000001
 12
1.0
 22
0.0
 32
0.0
 13
1.0
 23
0.0
 33
0.0
 40
0.0
 40
0.0
 40
0.0
 40
0.0
 40
1.0
 40
1.0
 40
1.0
 40
1.0
 10
294.0665
 20
-27.5611
 30
0.0
 10
294.0665
 20
-27.5611
 30
0.0
 10
294.0665
 20
-26.1592
 30
0.0
 10
294.0665
 20
-26.1592
 30
0.0
  0
SPLINE
  5
B2
330
1F
100
AcDbEntity
  8
Layer 1
370
    15
100
AcDbSpline
210
0.0
220
0.0
230
1.0
 70
    24
 71
     3
 72
     8
 73
     4
 74
     0
 42
0.0000000001
 43
0.0000000001
 12
1.0
 22
0.0
 32
0.0
 13
1.0
 23
0.0
 33
0.0
 40
0.0
 40
0.0
 40
0.0
 40
0.0
 40
1.0
 40
1.0
 40
1.0
 40
1.0
 10
294.0665
 20
-26.1592
 30
0.0
 10
294.0665
 20
-26.1592
 30
0.0
 10
291.3665
 20
-26.1592
 30
0.0
 10
291.3665
 20
-26.1592
 30
0.0
  0
SPLINE
  5
B3
330
1F
100
AcDbEntity
  8
Layer 1
370
    15
100
AcDbSpline
210
0.0
220
0.0
230
1.0
 70
    24
 71
     3
 72
     8
 73
     4
 74
     0
 42
0.0000000001
 43
0.0000000001
 12
1.0
 22
0.0
 32
0.0
 13
1.0
 23
0.0
 33
0.0
 40
0.0
 40
0.0
 40
0.0
 40
0.0
 40
1.0
 40
1.0
 40
1.0
 40
1.0
 10
291.3665
 20
-26.1592
 30
0.0
 10
291.3665
 20
-26.1592
 30
0.0
 10
291.3665
 20
25.8408
 30
0.0
 10
291.3665
 20
25.8408
 30
0.0
  0
SPLINE
  5
B4
330
1F
100
AcDbEntity
  8
Layer 1
370
    15
100
AcDbSpline
210
0.0
220
0.0
230
1.0
 70
    24
 71
     3
 72
     8
 73
     4
 74
     0
 42
0.0000000001
 43
0.0000000001
 12
1.0
 22
0.0
 32
0.0
 13
1.0
 23
0.0
 33
0.0
 40
0.0
 40
0.0
 40
0.0
 40
0.0
 40
1.0
 40
1.0
 40
1.0
 40
1.0
 10
291.3665
 20
25.8408
 30
0.0
 10
291.3665
 20
25.8408
 30
0.0
 10
294.0665
 20
25.8408
 30
0.0
 10
294.0665
 20
25.8408
 30
0.0
  0
SPLINE
  5
B5
330
1F
100
AcDbEntity
  8
Layer 1
370
    15
100
AcDbSpline
210
0.0
220
0.0
230
1.0
 70
    24
 71
     3
 72
     8
 73
     4
 74
     0
 42
0.0000000001
 43
0.0000000001
 12
1.0
 22
0.0
 32
0.0
 13
1.0
 23
0.0
 33
0.0
 40
0.0
 40
0.0
 40
0.0
 40
0.0
 40
1.0
 40
1.0
 40
1.0
 40
1.0
 10
294.0665
 20
25.8408
 30
0.0
 10
294.0665
 20
25.8408
 30
0.0
 10
294.0665
 20
27.2427
 30
0.0
 10
294.0665
 20
27.2427
 30
0.0
  0
SPLINE
  5
B6
330
1F
100
AcDbEntity
  8
Layer 1
370
    15
100
AcDbSpline
210
0.0
220
0.0
230
1.0
 70
     8
 71
     3
 72
     8
 73
     4
 74
     0
 42
0.0000000001
 43
0.0000000001
 12
1.0
 22
0.0
 32
0.0
 13
1.0
 23
0.0
 33
0.0
 40
0.0
 40
0.0
 40
0.0
 40
0.0
 40
1.0
 40
1.0
 40
1.0
 40
1.0
 10
294.0665
 20
27.2427
 30
0.0
 10
294.0665
 20
28.2261
 30
0.0
 10
293.3516
 20
29.0636
 30
0.0
 10
292.3804
 20
29.2179
 30
0.0
  0
SPLINE
  5
B7
330
1F
100
AcDbEntity
  8
Layer 1
370
    15
100
AcDbSpline
210
0.0
220
0.0
230
1.0
 70
    24
 71
     3
 72
     8
 73
     4
 74
     0
 42
0.0000000001
 43
0.0000000001
 12
1.0
 22
0.0
 32
0.0
 13
1.0
 23
0.0
 33
0.0
 40
0.0
 40
0.0
 40
0.0
 40
0.0
 40
1.0
 40
1.0
 40
1.0
 40
1.0
 10
292.3804
 20
29.2179
 30
0.0
 10
292.3804
 20
29.2179
 30
0.0
 10
195.6261
 20
44.593
 30
0.0
 10
195.6261
 20
44.593
 30
0.0
  0
SPLINE
  5
B8
330
1F
100
AcDbEntity
  8
Layer 1
370
    15
100
AcDbSpline
210
0.0
220
0.0
230
1.0
 70
     8
 71
     3
 72
     8
 73
     4
 74
     0
 42
0.0000000001
 43
0.0000000001
 12
1.0
 22
0.0
 32
0.0
 13
1.0
 23
0.0
 33
0.0
 40
0.0
 40
0.0
 40
0.0
 40
0.0
 40
1.0
 40
1.0
 40
1.0
 40
1.0
 10
195.6261
 20
44.593
 30
0.0
 10
194.588
 20
44.7579
 30
0.0
 10
193.5385
 20
44.8408
 30
0.0
 10
192.4873
 20
44.8408
 30
0.0
  0
SPLINE
  5
B9
330
1F
100
AcDbEntity
  8
Layer 1
370
    15
100
AcDbSpline
210
0.0
220
0.0
230
1.0
 70
    24
 71
     3
 72
     8
 73
     4
 74
     0
 42
0.0000000001
 43
0.0000000001
 12
1.0
 22
0.0
 32
0.0
 13
1.0
 23
0.0
 33
0.0
 40
0.0
 40
0.0
 40
0.0
 40
0.0
 40
1.0
 40
1.0
 40
1.0
 40
1.0
 10
192.4873
 20
44.8408
 30
0.0
 10
192.4873
 20
44.8408
 30
0.0
 10
-150.936
 20
44.8408
 30
0.0
 10
-150.936
 20
44.8408
 30
0.0
  0
SPLINE
  5
BA
330
1F
100
AcDbEntity
  8
Layer 1
370
    15
100
AcDbSpline
210
0.0
220
0.0
230
1.0
 70
     8
 71
     3
 72
     8
 73
     4
 74
     0
 42
0.0000000001
 43
0.0000000001
 12
1.0
 22
0.0
 32
0.0
 13
1.0
 23
0.0
 33
0.0
 40
0.0
 40
0.0
 40
0.0
 40
0.0
 40
1.0
 40
1.0
 40
1.0
 40
1.0
 10
-152.926
 20
44.9401
 30
0.0
 10
-152.2648
 20
44.8739
 30
0.0
 10
-151.6006
 20
44.8408
 30
0.0
 10
-150.936
 20
44.8408
 30
0.0
  0
SPLINE
  5
BB
330
1F
100
AcDbEntity
  8
Layer 1
370
    15
100
AcDbSpline
210
0.0
220
0.0
230
1.0
 70
    24
 71
     3
 72
     8
 73
     4
 74
     0
 42
0.0000000001
 43
0.0000000001
 12
1.0
 22
0.0
 32
0.0
 13
1.0
 23
0.0
 33
0.0
 40
0.0
 40
0.0
 40
0.0
 40
0.0
 40
1.0
 40
1.0
 40
1.0
 40
1.0
 10
-152.926
 20
44.9401
 30
0.0
 10
-152.926
 20
44.9401
 30
0.0
 10
-180.941
 20
47.7415
 30
0.0
 10
-180.941
 20
47.7415
 30
0.0
  0
SPLINE
  5
BC
330
1F
100
AcDbEntity
  8
Layer 1
370
    15
100
AcDbSpline
210
0.0
220
0.0
230
1.0
 70
     8
 71
     3
 72
     8
 73
     4
 74
     0
 42
0.0000000001
 43
0.0000000001
 12
1.0
 22
0.0
 32
0.0
 13
1.0
 23
0.0
 33
0.0
 40
0.0
 40
0.0
 40
0.0
 40
0.0
 40
1.0
 40
1.0
 40
1.0
 40
1.0
 10
-180.941
 20
47.7415
 30
0.0
 10
-181.6022
 20
47.8076
 30
0.0
 10
-182.2664
 20
47.8407
 30
0.0
 10
-182.931
 20
47.8407
 30
0.0
  0
SPLINE
  5
BD
330
1F
100
AcDbEntity
  8
Layer 1
370
    15
100
AcDbSpline
210
0.0
220
0.0
230
1.0
 70
    24
 71
     3
 72
     8
 73
     4
 74
     0
 42
0.0000000001
 43
0.0000000001
 12
1.0
 22
0.0
 32
0.0
 13
1.0
 23
0.0
 33
0.0
 40
0.0
 40
0.0
 40
0.0
 40
0.0
 40
1.0
 40
1.0
 40
1.0
 40
1.0
 10
-182.931
 20
47.8407
 30
0.0
 10
-182.931
 20
47.8407
 30
0.0
 10
-201.9335
 20
47.8407
 30
0.0
 10
-201.9335
 20
47.8407
 30
0.0
  0
SPLINE
  5
BE
330
1F
100
AcDbEntity
  8
Layer 1
370
    15
100
AcDbSpline
210
0.0
220
0.0
230
1.0
 70
    11
 71
     3
 72
    20
 73
    16
 74
     0
 42
0.0000000001
 43
0.0000000001
 12
1.0
 22
0.0
 32
0.0
 13
1.0
 23
0.0
 33
0.0
 40
0.0
 40
0.0
 40
0.0
 40
0.0
 40
0.2
 40
0.2
 40
0.2
 40
0.2
 40
0.4
 40
0.4
 40
0.4
 40
0.4
 40
0.6
 40
0.6
 40
0.6
 40
0.6
 40
1.0
 40
1.0
 40
1.0
 40
1.0
 10
-166.4835
 20
-41.1592
 30
0.0
 10
-166.4835
 20
-40.3584
 30
0.0
 10
-167.1327
 20
-39.7092
 30
0.0
 10
-167.9335
 20
-39.7092
 30
0.0
 10
-167.9335
 20
-39.7092
 30
0.0
 10
-168.7343
 20
-39.7092
 30
0.0
 10
-169.3835
 20
-40.3584
 30
0.0
 10
-169.3835
 20
-41.1592
 30
0.0
 10
-169.3835
 20
-41.1592
 30
0.0
 10
-169.3835
 20
-41.96
 30
0.0
 10
-168.7343
 20
-42.6092
 30
0.0
 10
-167.9335
 20
-42.6092
 30
0.0
 10
-167.9335
 20
-42.6092
 30
0.0
 10
-167.1327
 20
-42.6092
 30
0.0
 10
-166.4835
 20
-41.96
 30
0.0
 10
-166.4835
 20
-41.1592
 30
0.0
  0
SPLINE
  5
BF
330
1F
100
AcDbEntity
  8
Layer 1
370
    15
100
AcDbSpline
210
0.0
220
0.0
230
1.0
 70
    11
 71
     3
 72
    20
 73
    16
 74
     0
 42
0.0000000001
 43
0.0000000001
 12
1.0
 22
0.0
 32
0.0
 13
1.0
 23
0.0
 33
0.0
 40
0.0
 40
0.0
 40
0.0
 40
0.0
 40
0.2
 40
0.2
 40
0.2
 40
0.2
 40
0.4
 40
0.4
 40
0.4
 40
0.4
 40
0.6
 40
0.6
 40
0.6
 40
0.6
 40
1.0
 40
1.0
 40
1.0
 40
1.0
 10
-108.5298
 20
-41.1592
 30
0.0
 10
-108.5298
 20
-40.3692
 30
0.0
 10
-109.1702
 20
-39.7288
 30
0.0
 10
-109.9602
 20
-39.7288
 30
0.0
 10
-109.9602
 20
-39.7288
 30
0.0
 10
-110.7502
 20
-39.7288
 30
0.0
 10
-111.3906
 20
-40.3692
 30
0.0
 10
-111.3906
 20
-41.1592
 30
0.0
 10
-111.3906
 20
-41.1592
 30
0.0
 10
-111.3906
 20
-41.9492
 30
0.0
 10
-110.7502
 20
-42.5896
 30
0.0
 10
-109.9602
 20
-42.5896
 30
0.0
 10
-109.9602
 20
-42.5896
 30
0.0
 10
-109.1702
 20
-42.5896
 30
0.0
 10
-108.5298
 20
-41.9492
 30
0.0
 10
-108.5298
 20
-41.1592
 30
0.0
  0
SPLINE
  5
C0
330
1F
100
AcDbEntity
  8
Layer 1
370
    15
100
AcDbSpline
210
0.0
220
0.0
230
1.0
 70
    11
 71
     3
 72
    20
 73
    16
 74
     0
 42
0.0000000001
 43
0.0000000001
 12
1.0
 22
0.0
 32
0.0
 13
1.0
 23
0.0
 33
0.0
 40
0.0
 40
0.0
 40
0.0
 40
0.0
 40
0.2
 40
0.2
 40
0.2
 40
0.2
 40
0.4
 40
0.4
 40
0.4
 40
0.4
 40
0.6
 40
0.6
 40
0.6
 40
0.6
 40
1.0
 40
1.0
 40
1.0
 40
1.0
 10
-50.5761
 20
-41.1592
 30
0.0
 10
-50.5761
 20
-40.38
 30
0.0
 10
-51.2077
 20
-39.7483
 30
0.0
 10
-51.9869
 20
-39.7483
 30
0.0
 10
-51.9869
 20
-39.7483
 30
0.0
 10
-52.7661
 20
-39.7483
 30
0.0
 10
-53.3978
 20
-40.38
 30
0.0
 10
-53.3978
 20
-41.1592
 30
0.0
 10
-53.3978
 20
-41.1592
 30
0.0
 10
-53.3978
 20
-41.9384
 30
0.0
 10
-52.7661
 20
-42.5701
 30
0.0
 10
-51.9869
 20
-42.5701
 30
0.0
 10
-51.9869
 20
-42.5701
 30
0.0
 10
-51.2077
 20
-42.5701
 30
0.0
 10
-50.5761
 20
-41.9384
 30
0.0
 10
-50.5761
 20
-41.1592
 30
0.0
  0
SPLINE
  5
C1
330
1F
100
AcDbEntity
  8
Layer 1
370
    15
100
AcDbSpline
210
0.0
220
0.0
230
1.0
 70
    11
 71
     3
 72
    20
 73
    16
 74
     0
 42
0.0000000001
 43
0.0000000001
 12
1.0
 22
0.0
 32
0.0
 13
1.0
 23
0.0
 33
0.0
 40
0.0
 40
0.0
 40
0.0
 40
0.0
 40
0.2
 40
0.2
 40
0.2
 40
0.2
 40
0.4
 40
0.4
 40
0.4
 40
0.4
 40
0.6
 40
0.6
 40
0.6
 40
0.6
 40
1.0
 40
1.0
 40
1.0
 40
1.0
 10
7.3777
 20
-41.1592
 30
0.0
 10
7.3777
 20
-40.3908
 30
0.0
 10
6.7548
 20
-39.7679
 30
0.0
 10
5.9864
 20
-39.7679
 30
0.0
 10
5.9864
 20
-39.7679
 30
0.0
 10
5.218
 20
-39.7679
 30
0.0
 10
4.595
 20
-40.3908
 30
0.0
 10
4.595
 20
-41.1592
 30
0.0
 10
4.595
 20
-41.1592
 30
0.0
 10
4.595
 20
-41.9276
 30
0.0
 10
5.218
 20
-42.5505
 30
0.0
 10
5.9864
 20
-42.5505
 30
0.0
 10
5.9864
 20
-42.5505
 30
0.0
 10
6.7548
 20
-42.5505
 30
0.0
 10
7.3777
 20
-41.9276
 30
0.0
 10
7.3777
 20
-41.1592
 30
0.0
  0
SPLINE
  5
C2
330
1F
100
AcDbEntity
  8
Layer 1
370
    15
100
AcDbSpline
210
0.0
220
0.0
230
1.0
 70
    11
 71
     3
 72
    20
 73
    16
 74
     0
 42
0.0000000001
 43
0.0000000001
 12
1.0
 22
0.0
 32
0.0
 13
1.0
 23
0.0
 33
0.0
 40
0.0
 40
0.0
 40
0.0
 40
0.0
 40
0.2
 40
0.2
 40
0.2
 40
0.2
 40
0.4
 40
0.4
 40
0.4
 40
0.4
 40
0.6
 40
0.6
 40
0.6
 40
0.6
 40
1.0
 40
1.0
 40
1.0
 40
1.0
 10
65.3315
 20
-41.1592
 30
0.0
 10
65.3315
 20
-40.4016
 30
0.0
 10
64.7173
 20
-39.7874
 30
0.0
 10
63.9597
 20
-39.7874
 30
0.0
 10
63.9597
 20
-39.7874
 30
0.0
 10
63.202
 20
-39.7874
 30
0.0
 10
62.5879
 20
-40.4016
 30
0.0
 10
62.5879
 20
-41.1592
 30
0.0
 10
62.5879
 20
-41.1592
 30
0.0
 10
62.5879
 20
-41.9168
 30
0.0
 10
63.202
 20
-42.531
 30
0.0
 10
63.9597
 20
-42.531
 30
0.0
 10
63.9597
 20
-42.531
 30
0.0
 10
64.7173
 20
-42.531
 30
0.0
 10
65.3314
 20
-41.9168
 30
0.0
 10
65.3315
 20
-41.1592
 30
0.0
  0
SPLINE
  5
C3
330
1F
100
AcDbEntity
  8
Layer 1
370
    15
100
AcDbSpline
210
0.0
220
0.0
230
1.0
 70
    11
 71
     3
 72
    20
 73
    16
 74
     0
 42
0.0000000001
 43
0.0000000001
 12
1.0
 22
0.0
 32
0.0
 13
1.0
 23
0.0
 33
0.0
 40
0.0
 40
0.0
 40
0.0
 40
0.0
 40
0.2
 40
0.2
 40
0.2
 40
0.2
 40
0.4
 40
0.4
 40
0.4
 40
0.4
 40
0.6
 40
0.6
 40
0.6
 40
0.6
 40
1.0
 40
1.0
 40
1.0
 40
1.0
 10
123.2852
 20
-41.1592
 30
0.0
 10
123.2852
 20
-40.4124
 30
0.0
 10
122.6798
 20
-39.8069
 30
0.0
 10
121.933
 20
-39.8069
 30
0.0
 10
121.933
 20
-39.8069
 30
0.0
 10
121.1861
 20
-39.8069
 30
0.0
 10
120.5807
 20
-40.4124
 30
0.0
 10
120.5807
 20
-41.1592
 30
0.0
 10
120.5807
 20
-41.1592
 30
0.0
 10
120.5807
 20
-41.906
 30
0.0
 10
121.1861
 20
-42.5115
 30
0.0
 10
121.9329
 20
-42.5115
 30
0.0
 10
121.9329
 20
-42.5115
 30
0.0
 10
122.6798
 20
-42.5115
 30
0.0
 10
123.2852
 20
-41.906
 30
0.0
 10
123.2852
 20
-41.1592
 30
0.0
  0
SPLINE
  5
C4
330
1F
100
AcDbEntity
  8
Layer 1
370
    15
100
AcDbSpline
210
0.0
220
0.0
230
1.0
 70
    11
 71
     3
 72
    20
 73
    16
 74
     0
 42
0.0000000001
 43
0.0000000001
 12
1.0
 22
0.0
 32
0.0
 13
1.0
 23
0.0
 33
0.0
 40
0.0
 40
0.0
 40
0.0
 40
0.0
 40
0.2
 40
0.2
 40
0.2
 40
0.2
 40
0.4
 40
0.4
 40
0.4
 40
0.4
 40
0.6
 40
0.6
 40
0.6
 40
0.6
 40
1.0
 40
1.0
 40
1.0
 40
1.0
 10
181.239
 20
-41.1592
 30
0.0
 10
181.239
 20
-40.4231
 30
0.0
 10
180.6423
 20
-39.8264
 30
0.0
 10
179.9062
 20
-39.8264
 30
0.0
 10
179.9062
 20
-39.8264
 30
0.0
 10
179.1702
 20
-39.8264
 30
0.0
 10
178.5735
 20
-40.4231
 30
0.0
 10
178.5735
 20
-41.1592
 30
0.0
 10
178.5735
 20
-41.1592
 30
0.0
 10
178.5735
 20
-41.8953
 30
0.0
 10
179.1702
 20
-42.492
 30
0.0
 10
179.9062
 20
-42.492
 30
0.0
 10
179.9062
 20
-42.492
 30
0.0
 10
180.6423
 20
-42.492
 30
0.0
 10
181.239
 20
-41.8953
 30
0.0
 10
181.239
 20
-41.1592
 30
0.0
  0
SPLINE
  5
C5
330
1F
100
AcDbEntity
  8
Layer 1
370
    15
100
AcDbSpline
210
0.0
220
0.0
230
1.0
 70
    11
 71
     3
 72
    20
 73
    16
 74
     0
 42
0.0000000001
 43
0.0000000001
 12
1.0
 22
0.0
 32
0.0
 13
1.0
 23
0.0
 33
0.0
 40
0.0
 40
0.0
 40
0.0
 40
0.0
 40
0.2
 40
0.2
 40
0.2
 40
0.2
 40
0.4
 40
0.4
 40
0.4
 40
0.4
 40
0.6
 40
0.6
 40
0.6
 40
0.6
 40
1.0
 40
1.0
 40
1.0
 40
1.0
 10
268.1035
 20
-30.271
 30
0.0
 10
268.1035
 20
-29.4702
 30
0.0
 10
267.4543
 20
-28.821
 30
0.0
 10
266.6535
 20
-28.821
 30
0.0
 10
266.6535
 20
-28.821
 30
0.0
 10
265.8527
 20
-28.821
 30
0.0
 10
265.2035
 20
-29.4702
 30
0.0
 10
265.2035
 20
-30.271
 30
0.0
 10
265.2035
 20
-30.271
 30
0.0
 10
265.2035
 20
-31.0718
 30
0.0
 10
265.8527
 20
-31.721
 30
0.0
 10
266.6535
 20
-31.721
 30
0.0
 10
266.6535
 20
-31.721
 30
0.0
 10
267.4543
 20
-31.721
 30
0.0
 10
268.1035
 20
-31.0718
 30
0.0
 10
268.1035
 20
-30.271
 30
0.0
  0
SPLINE
  5
C6
330
1F
100
AcDbEntity
  8
Layer 1
370
    15
100
AcDbSpline
210
0.0
220
0.0
230
1.0
 70
    11
 71
     3
 72
    20
 73
    16
 74
     0
 42
0.0000000001
 43
0.0000000001
 12
1.0
 22
0.0
 32
0.0
 13
1.0
 23
0.0
 33
0.0
 40
0.0
 40
0.0
 40
0.0
 40
0.0
 40
0.2
 40
0.2
 40
0.2
 40
0.2
 40
0.4
 40
0.4
 40
0.4
 40
0.4
 40
0.6
 40
0.6
 40
0.6
 40
0.6
 40
1.0
 40
1.0
 40
1.0
 40
1.0
 10
196.0165
 20
40.7651
 30
0.0
 10
196.0165
 20
41.566
 30
0.0
 10
195.3673
 20
42.2151
 30
0.0
 10
194.5665
 20
42.2151
 30
0.0
 10
194.5665
 20
42.2151
 30
0.0
 10
193.7657
 20
42.2151
 30
0.0
 10
193.1165
 20
41.566
 30
0.0
 10
193.1165
 20
40.7651
 30
0.0
 10
193.1165
 20
40.7651
 30
0.0
 10
193.1165
 20
39.9643
 30
0.0
 10
193.7657
 20
39.3151
 30
0.0
 10
194.5665
 20
39.3151
 30
0.0
 10
194.5665
 20
39.3151
 30
0.0
 10
195.3673
 20
39.3151
 30
0.0
 10
196.0165
 20
39.9643
 30
0.0
 10
196.0165
 20
40.7651
 30
0.0
  0
SPLINE
  5
C7
330
1F
100
AcDbEntity
  8
Layer 1
370
    15
100
AcDbSpline
210
0.0
220
0.0
230
1.0
 70
    11
 71
     3
 72
    20
 73
    16
 74
     0
 42
0.0000000001
 43
0.0000000001
 12
1.0
 22
0.0
 32
0.0
 13
1.0
 23
0.0
 33
0.0
 40
0.0
 40
0.0
 40
0.0
 40
0.0
 40
0.2
 40
0.2
 40
0.2
 40
0.2
 40
0.4
 40
0.4
 40
0.4
 40
0.4
 40
0.6
 40
0.6
 40
0.6
 40
0.6
 40
1.0
 40
1.0
 40
1.0
 40
1.0
 10
-122.9835
 20
40.8408
 30
0.0
 10
-122.9835
 20
41.6416
 30
0.0
 10
-123.6327
 20
42.2908
 30
0.0
 10
-124.4335
 20
42.2908
 30
0.0
 10
-124.4335
 20
42.2908
 30
0.0
 10
-125.2343
 20
42.2908
 30
0.0
 10
-125.8835
 20
41.6416
 30
0.0
 10
-125.8835
 20
40.8408
 30
0.0
 10
-125.8835
 20
40.8408
 30
0.0
 10
-125.8835
 20
40.04
 30
0.0
 10
-125.2343
 20
39.3908
 30
0.0
 10
-124.4335
 20
39.3908
 30
0.0
 10
-124.4335
 20
39.3908
 30
0.0
 10
-123.6327
 20
39.3908
 30
0.0
 10
-122.9835
 20
40.04
 30
0.0
 10
-122.9835
 20
40.8408
 30
0.0
  0
SPLINE
  5
C8
330
1F
100
AcDbEntity
  8
Layer 1
370
    15
100
AcDbSpline
210
0.0
220
0.0
230
1.0
 70
    11
 71
     3
 72
    20
 73
    16
 74
     0
 42
0.0000000001
 43
0.0000000001
 12
1.0
 22
0.0
 32
0.0
 13
1.0
 23
0.0
 33
0.0
 40
0.0
 40
0.0
 40
0.0
 40
0.0
 40
0.2
 40
0.2
 40
0.2
 40
0.2
 40
0.4
 40
0.4
 40
0.4
 40
0.4
 40
0.6
 40
0.6
 40
0.6
 40
0.6
 40
1.0
 40
1.0
 40
1.0
 40
1.0
 10
-64.9835
 20
40.8408
 30
0.0
 10
-64.9835
 20
41.6416
 30
0.0
 10
-65.6327
 20
42.2908
 30
0.0
 10
-66.4335
 20
42.2908
 30
0.0
 10
-66.4335
 20
42.2908
 30
0.0
 10
-67.2343
 20
42.2908
 30
0.0
 10
-67.8835
 20
41.6416
 30
0.0
 10
-67.8835
 20
40.8408
 30
0.0
 10
-67.8835
 20
40.8408
 30
0.0
 10
-67.8835
 20
40.04
 30
0.0
 10
-67.2343
 20
39.3908
 30
0.0
 10
-66.4335
 20
39.3908
 30
0.0
 10
-66.4335
 20
39.3908
 30
0.0
 10
-65.6327
 20
39.3908
 30
0.0
 10
-64.9835
 20
40.04
 30
0.0
 10
-64.9835
 20
40.8408
 30
0.0
  0
SPLINE
  5
C9
330
1F
100
AcDbEntity
  8
Layer 1
370
    15
100
AcDbSpline
210
0.0
220
0.0
230
1.0
 70
    11
 71
     3
 72
    20
 73
    16
 74
     0
 42
0.0000000001
 43
0.0000000001
 12
1.0
 22
0.0
 32
0.0
 13
1.0
 23
0.0
 33
0.0
 40
0.0
 40
0.0
 40
0.0
 40
0.0
 40
0.2
 40
0.2
 40
0.2
 40
0.2
 40
0.4
 40
0.4
 40
0.4
 40
0.4
 40
0.6
 40
0.6
 40
0.6
 40
0.6
 40
1.0
 40
1.0
 40
1.0
 40
1.0
 10
-6.9835
 20
40.8408
 30
0.0
 10
-6.9835
 20
41.6416
 30
0.0
 10
-7.6327
 20
42.2908
 30
0.0
 10
-8.4335
 20
42.2908
 30
0.0
 10
-8.4335
 20
42.2908
 30
0.0
 10
-9.2343
 20
42.2908
 30
0.0
 10
-9.8835
 20
41.6416
 30
0.0
 10
-9.8835
 20
40.8408
 30
0.0
 10
-9.8835
 20
40.8408
 30
0.0
 10
-9.8835
 20
40.04
 30
0.0
 10
-9.2343
 20
39.3908
 30
0.0
 10
-8.4335
 20
39.3908
 30
0.0
 10
-8.4335
 20
39.3908
 30
0.0
 10
-7.6327
 20
39.3908
 30
0.0
 10
-6.9835
 20
40.04
 30
0.0
 10
-6.9835
 20
40.8408
 30
0.0
  0
SPLINE
  5
CA
330
1F
100
AcDbEntity
  8
Layer 1
370
    15
100
AcDbSpline
210
0.0
220
0.0
230
1.0
 70
    11
 71
     3
 72
    20
 73
    16
 74
     0
 42
0.0000000001
 43
0.0000000001
 12
1.0
 22
0.0
 32
0.0
 13
1.0
 23
0.0
 33
0.0
 40
0.0
 40
0.0
 40
0.0
 40
0.0
 40
0.2
 40
0.2
 40
0.2
 40
0.2
 40
0.4
 40
0.4
 40
0.4
 40
0.4
 40
0.6
 40
0.6
 40
0.6
 40
0.6
 40
1.0
 40
1.0
 40
1.0
 40
1.0
 10
51.0165
 20
40.8408
 30
0.0
 10
51.0165
 20
41.6416
 30
0.0
 10
50.3673
 20
42.2908
 30
0.0
 10
49.5665
 20
42.2908
 30
0.0
 10
49.5665
 20
42.2908
 30
0.0
 10
48.7657
 20
42.2908
 30
0.0
 10
48.1165
 20
41.6416
 30
0.0
 10
48.1165
 20
40.8408
 30
0.0
 10
48.1165
 20
40.8408
 30
0.0
 10
48.1165
 20
40.04
 30
0.0
 10
48.7657
 20
39.3908
 30
0.0
 10
49.5665
 20
39.3908
 30
0.0
 10
49.5665
 20
39.3908
 30
0.0
 10
50.3673
 20
39.3908
 30
0.0
 10
51.0165
 20
40.04
 30
0.0
 10
51.0165
 20
40.8408
 30
0.0
  0
SPLINE
  5
CB
330
1F
100
AcDbEntity
  8
Layer 1
370
    15
100
AcDbSpline
210
0.0
220
0.0
230
1.0
 70
    11
 71
     3
 72
    20
 73
    16
 74
     0
 42
0.0000000001
 43
0.0000000001
 12
1.0
 22
0.0
 32
0.0
 13
1.0
 23
0.0
 33
0.0
 40
0.0
 40
0.0
 40
0.0
 40
0.0
 40
0.2
 40
0.2
 40
0.2
 40
0.2
 40
0.4
 40
0.4
 40
0.4
 40
0.4
 40
0.6
 40
0.6
 40
0.6
 40
0.6
 40
1.0
 40
1.0
 40
1.0
 40
1.0
 10
109.0165
 20
40.8408
 30
0.0
 10
109.0165
 20
41.6416
 30
0.0
 10
108.3673
 20
42.2908
 30
0.0
 10
107.5665
 20
42.2908
 30
0.0
 10
107.5665
 20
42.2908
 30
0.0
 10
106.7657
 20
42.2908
 30
0.0
 10
106.1165
 20
41.6416
 30
0.0
 10
106.1165
 20
40.8408
 30
0.0
 10
106.1165
 20
40.8408
 30
0.0
 10
106.1165
 20
40.04
 30
0.0
 10
106.7657
 20
39.3908
 30
0.0
 10
107.5665
 20
39.3908
 30
0.0
 10
107.5665
 20
39.3908
 30
0.0
 10
108.3673
 20
39.3908
 30
0.0
 10
109.0165
 20
40.04
 30
0.0
 10
109.0165
 20
40.8408
 30
0.0
  0
SPLINE
  5
CC
330
1F
100
AcDbEntity
  8
Layer 1
370
    15
100
AcDbSpline
210
0.0
220
0.0
230
1.0
 70
    11
 71
     3
 72
    20
 73
    16
 74
     0
 42
0.0000000001
 43
0.0000000001
 12
1.0
 22
0.0
 32
0.0
 13
1.0
 23
0.0
 33
0.0
 40
0.0
 40
0.0
 40
0.0
 40
0.0
 40
0.2
 40
0.2
 40
0.2
 40
0.2
 40
0.4
 40
0.4
 40
0.4
 40
0.4
 40
0.6
 40
0.6
 40
0.6
 40
0.6
 40
1.0
 40
1.0
 40
1.0
 40
1.0
 10
167.0165
 20
40.8408
 30
0.0
 10
167.0165
 20
41.6416
 30
0.0
 10
166.3673
 20
42.2908
 30
0.0
 10
165.5665
 20
42.2908
 30
0.0
 10
165.5665
 20
42.2908
 30
0.0
 10
164.7657
 20
42.2908
 30
0.0
 10
164.1165
 20
41.6416
 30
0.0
 10
164.1165
 20
40.8408
 30
0.0
 10
164.1165
 20
40.8408
 30
0.0
 10
164.1165
 20
40.04
 30
0.0
 10
164.7657
 20
39.3908
 30
0.0
 10
165.5665
 20
39.3908
 30
0.0
 10
165.5665
 20
39.3908
 30
0.0
 10
166.3673
 20
39.3908
 30
0.0
 10
167.0165
 20
40.04
 30
0.0
 10
167.0165
 20
40.8408
 30
0.0
  0
SPLINE
  5
CD
330
1F
100
AcDbEntity
  8
Layer 1
370
    15
100
AcDbSpline
210
0.0
220
0.0
230
1.0
 70
    11
 71
     3
 72
    20
 73
    16
 74
     0
 42
0.0000000001
 43
0.0000000001
 12
1.0
 22
0.0
 32
0.0
 13
1.0
 23
0.0
 33
0.0
 40
0.0
 40
0.0
 40
0.0
 40
0.0
 40
0.2
 40
0.2
 40
0.2
 40
0.2
 40
0.4
 40
0.4
 40
0.4
 40
0.4
 40
0.6
 40
0.6
 40
0.6
 40
0.6
 40
1.0
 40
1.0
 40
1.0
 40
1.0
 10
253.6055
 20
32.1272
 30
0.0
 10
253.6055
 20
32.928
 30
0.0
 10
252.9563
 20
33.5772
 30
0.0
 10
252.1555
 20
33.5772
 30
0.0
 10
252.1555
 20
33.5772
 30
0.0
 10
251.3547
 20
33.5772
 30
0.0
 10
250.7055
 20
32.928
 30
0.0
 10
250.7055
 20
32.1272
 30
0.0
 10
250.7055
 20
32.1272
 30
0.0
 10
250.7055
 20
31.3264
 30
0.0
 10
251.3547
 20
30.6772
 30
0.0
 10
252.1555
 20
30.6772
 30
0.0
 10
252.1555
 20
30.6772
 30
0.0
 10
252.9563
 20
30.6772
 30
0.0
 10
253.6055
 20
31.3264
 30
0.0
 10
253.6055
 20
32.1272
 30
0.0
  0
SPLINE
  5
CE
330
1F
100
AcDbEntity
  8
Layer 1
370
    15
100
AcDbSpline
210
0.0
220
0.0
230
1.0
 70
    11
 71
     3
 72
    20
 73
    16
 74
     0
 42
0.0000000001
 43
0.0000000001
 12
1.0
 22
0.0
 32
0.0
 13
1.0
 23
0.0
 33
0.0
 40
0.0
 40
0.0
 40
0.0
 40
0.0
 40
0.2
 40
0.2
 40
0.2
 40
0.2
 40
0.4
 40
0.4
 40
0.4
 40
0.4
 40
0.6
 40
0.6
 40
0.6
 40
0.6
 40
1.0
 40
1.0
 40
1.0
 40
1.0
 10
-180.9835
 20
40.8408
 30
0.0
 10
-180.9835
 20
41.6416
 30
0.0
 10
-181.6327
 20
42.2908
 30
0.0
 10
-182.4335
 20
42.2908
 30
0.0
 10
-182.4335
 20
42.2908
 30
0.0
 10
-183.2343
 20
42.2908
 30
0.0
 10
-183.8835
 20
41.6416
 30
0.0
 10
-183.8835
 20
40.8408
 30
0.0
 10
-183.8835
 20
40.8408
 30
0.0
 10
-183.8835
 20
40.04
 30
0.0
 10
-183.2343
 20
39.3908
 30
0.0
 10
-182.4335
 20
39.3908
 30
0.0
 10
-182.4335
 20
39.3908
 30
0.0
 10
-181.6327
 20
39.3908
 30
0.0
 10
-180.9835
 20
40.04
 30
0.0
 10
-180.9835
 20
40.8408
 30
0.0
  0
SPLINE
  5
CF
330
1F
100
AcDbEntity
  8
Layer 1
370
    15
100
AcDbSpline
210
0.0
220
0.0
230
1.0
 70
    11
 71
     3
 72
    20
 73
    16
 74
     0
 42
0.0000000001
 43
0.0000000001
 12
1.0
 22
0.0
 32
0.0
 13
1.0
 23
0.0
 33
0.0
 40
0.0
 40
0.0
 40
0.0
 40
0.0
 40
0.2
 40
0.2
 40
0.2
 40
0.2
 40
0.4
 40
0.4
 40
0.4
 40
0.4
 40
0.6
 40
0.6
 40
0.6
 40
0.6
 40
1.0
 40
1.0
 40
1.0
 40
1.0
 10
-190.4685
 20
-66.942
 30
0.0
 10
-190.4685
 20
-66.1412
 30
0.0
 10
-189.8193
 20
-65.492
 30
0.0
 10
-189.0185
 20
-65.492
 30
0.0
 10
-189.0185
 20
-65.492
 30
0.0
 10
-188.2177
 20
-65.492
 30
0.0
 10
-187.5685
 20
-66.1412
 30
0.0
 10
-187.5685
 20
-66.942
 30
0.0
 10
-187.5685
 20
-66.942
 30
0.0
 10
-187.5685
 20
-67.7428
 30
0.0
 10
-188.2177
 20
-68.392
 30
0.0
 10
-189.0185
 20
-68.392
 30
0.0
 10
-189.0185
 20
-68.392
 30
0.0
 10
-189.8193
 20
-68.392
 30
0.0
 10
-190.4685
 20
-67.7429
 30
0.0
 10
-190.4685
 20
-66.942
 30
0.0
  0
SPLINE
  5
D0
330
1F
100
AcDbEntity
  8
Layer 1
370
    15
100
AcDbSpline
210
0.0
220
0.0
230
1.0
 70
    11
 71
     3
 72
    20
 73
    16
 74
     0
 42
0.0000000001
 43
0.0000000001
 12
1.0
 22
0.0
 32
0.0
 13
1.0
 23
0.0
 33
0.0
 40
0.0
 40
0.0
 40
0.0
 40
0.0
 40
0.2
 40
0.2
 40
0.2
 40
0.2
 40
0.4
 40
0.4
 40
0.4
 40
0.4
 40
0.6
 40
0.6
 40
0.6
 40
0.6
 40
1.0
 40
1.0
 40
1.0
 40
1.0
 10
-132.4764
 20
-58.2436
 30
0.0
 10
-132.4764
 20
-57.4428
 30
0.0
 10
-131.8272
 20
-56.7936
 30
0.0
 10
-131.0264
 20
-56.7936
 30
0.0
 10
-131.0264
 20
-56.7936
 30
0.0
 10
-130.2256
 20
-56.7936
 30
0.0
 10
-129.5764
 20
-57.4428
 30
0.0
 10
-129.5764
 20
-58.2436
 30
0.0
 10
-129.5764
 20
-58.2436
 30
0.0
 10
-129.5764
 20
-59.0444
 30
0.0
 10
-130.2256
 20
-59.6936
 30
0.0
 10
-131.0264
 20
-59.6936
 30
0.0
 10
-131.0264
 20
-59.6936
 30
0.0
 10
-131.8272
 20
-59.6936
 30
0.0
 10
-132.4764
 20
-59.0444
 30
0.0
 10
-132.4764
 20
-58.2436
 30
0.0
  0
SPLINE
  5
D1
330
1F
100
AcDbEntity
  8
Layer 1
370
    15
100
AcDbSpline
210
0.0
220
0.0
230
1.0
 70
    11
 71
     3
 72
    20
 73
    16
 74
     0
 42
0.0000000001
 43
0.0000000001
 12
1.0
 22
0.0
 32
0.0
 13
1.0
 23
0.0
 33
0.0
 40
0.0
 40
0.0
 40
0.0
 40
0.0
 40
0.2
 40
0.2
 40
0.2
 40
0.2
 40
0.4
 40
0.4
 40
0.4
 40
0.4
 40
0.6
 40
0.6
 40
0.6
 40
0.6
 40
1.0
 40
1.0
 40
1.0
 40
1.0
 10
-45.8835
 20
-53.8792
 30
0.0
 10
-45.8835
 20
-53.0784
 30
0.0
 10
-45.2343
 20
-52.4292
 30
0.0
 10
-44.4335
 20
-52.4292
 30
0.0
 10
-44.4335
 20
-52.4292
 30
0.0
 10
-43.6327
 20
-52.4292
 30
0.0
 10
-42.9835
 20
-53.0784
 30
0.0
 10
-42.9835
 20
-53.8792
 30
0.0
 10
-42.9835
 20
-53.8792
 30
0.0
 10
-42.9835
 20
-54.68
 30
0.0
 10
-43.6327
 20
-55.3292
 30
0.0
 10
-44.4335
 20
-55.3292
 30
0.0
 10
-44.4335
 20
-55.3292
 30
0.0
 10
-45.2343
 20
-55.3292
 30
0.0
 10
-45.8835
 20
-54.68
 30
0.0
 10
-45.8835
 20
-53.8792
 30
0.0
  0
SPLINE
  5
D2
330
1F
100
AcDbEntity
  8
Layer 1
370
    15
100
AcDbSpline
210
0.0
220
0.0
230
1.0
 70
    11
 71
     3
 72
    20
 73
    16
 74
     0
 42
0.0000000001
 43
0.0000000001
 12
1.0
 22
0.0
 32
0.0
 13
1.0
 23
0.0
 33
0.0
 40
0.0
 40
0.0
 40
0.0
 40
0.0
 40
0.2
 40
0.2
 40
0.2
 40
0.2
 40
0.4
 40
0.4
 40
0.4
 40
0.4
 40
0.6
 40
0.6
 40
0.6
 40
0.6
 40
1.0
 40
1.0
 40
1.0
 40
1.0
 10
12.1165
 20
-53.8792
 30
0.0
 10
12.1165
 20
-53.0784
 30
0.0
 10
12.7657
 20
-52.4292
 30
0.0
 10
13.5665
 20
-52.4292
 30
0.0
 10
13.5665
 20
-52.4292
 30
0.0
 10
14.3673
 20
-52.4292
 30
0.0
 10
15.0165
 20
-53.0784
 30
0.0
 10
15.0165
 20
-53.8792
 30
0.0
 10
15.0165
 20
-53.8792
 30
0.0
 10
15.0165
 20
-54.68
 30
0.0
 10
14.3673
 20
-55.3292
 30
0.0
 10
13.5665
 20
-55.3292
 30
0.0
 10
13.5665
 20
-55.3292
 30
0.0
 10
12.7657
 20
-55.3292
 30
0.0
 10
12.1165
 20
-54.68
 30
0.0
 10
12.1165
 20
-53.8792
 30
0.0
  0
SPLINE
  5
D3
330
1F
100
AcDbEntity
  8
Layer 1
370
    15
100
AcDbSpline
210
0.0
220
0.0
230
1.0
 70
    11
 71
     3
 72
    20
 73
    16
 74
     0
 42
0.0000000001
 43
0.0000000001
 12
1.0
 22
0.0
 32
0.0
 13
1.0
 23
0.0
 33
0.0
 40
0.0
 40
0.0
 40
0.0
 40
0.0
 40
0.2
 40
0.2
 40
0.2
 40
0.2
 40
0.4
 40
0.4
 40
0.4
 40
0.4
 40
0.6
 40
0.6
 40
0.6
 40
0.6
 40
1.0
 40
1.0
 40
1.0
 40
1.0
 10
70.1165
 20
-53.8792
 30
0.0
 10
70.1165
 20
-53.0784
 30
0.0
 10
70.7657
 20
-52.4292
 30
0.0
 10
71.5665
 20
-52.4292
 30
0.0
 10
71.5665
 20
-52.4292
 30
0.0
 10
72.3673
 20
-52.4292
 30
0.0
 10
73.0165
 20
-53.0784
 30
0.0
 10
73.0165
 20
-53.8792
 30
0.0
 10
73.0165
 20
-53.8792
 30
0.0
 10
73.0165
 20
-54.68
 30
0.0
 10
72.3673
 20
-55.3292
 30
0.0
 10
71.5665
 20
-55.3292
 30
0.0
 10
71.5665
 20
-55.3292
 30
0.0
 10
70.7657
 20
-55.3292
 30
0.0
 10
70.1165
 20
-54.68
 30
0.0
 10
70.1165
 20
-53.8792
 30
0.0
  0
SPLINE
  5
D4
330
1F
100
AcDbEntity
  8
Layer 1
370
    15
100
AcDbSpline
210
0.0
220
0.0
230
1.0
 70
    11
 71
     3
 72
    20
 73
    16
 74
     0
 42
0.0000000001
 43
0.0000000001
 12
1.0
 22
0.0
 32
0.0
 13
1.0
 23
0.0
 33
0.0
 40
0.0
 40
0.0
 40
0.0
 40
0.0
 40
0.2
 40
0.2
 40
0.2
 40
0.2
 40
0.4
 40
0.4
 40
0.4
 40
0.4
 40
0.6
 40
0.6
 40
0.6
 40
0.6
 40
1.0
 40
1.0
 40
1.0
 40
1.0
 10
128.1165
 20
-53.8792
 30
0.0
 10
128.1165
 20
-53.0784
 30
0.0
 10
128.7657
 20
-52.4292
 30
0.0
 10
129.5665
 20
-52.4292
 30
0.0
 10
129.5665
 20
-52.4292
 30
0.0
 10
130.3673
 20
-52.4292
 30
0.0
 10
131.0165
 20
-53.0784
 30
0.0
 10
131.0165
 20
-53.8792
 30
0.0
 10
131.0165
 20
-53.8792
 30
0.0
 10
131.0165
 20
-54.68
 30
0.0
 10
130.3673
 20
-55.3292
 30
0.0
 10
129.5665
 20
-55.3292
 30
0.0
 10
129.5665
 20
-55.3292
 30
0.0
 10
128.7657
 20
-55.3292
 30
0.0
 10
128.1165
 20
-54.68
 30
0.0
 10
128.1165
 20
-53.8792
 30
0.0
  0
SPLINE
  5
D5
330
1F
100
AcDbEntity
  8
Layer 1
370
    15
100
AcDbSpline
210
0.0
220
0.0
230
1.0
 70
    11
 71
     3
 72
    20
 73
    16
 74
     0
 42
0.0000000001
 43
0.0000000001
 12
1.0
 22
0.0
 32
0.0
 13
1.0
 23
0.0
 33
0.0
 40
0.0
 40
0.0
 40
0.0
 40
0.0
 40
0.2
 40
0.2
 40
0.2
 40
0.2
 40
0.4
 40
0.4
 40
0.4
 40
0.4
 40
0.6
 40
0.6
 40
0.6
 40
0.6
 40
1.0
 40
1.0
 40
1.0
 40
1.0
 10
186.1165
 20
-53.8792
 30
0.0
 10
186.1165
 20
-53.0784
 30
0.0
 10
186.7657
 20
-52.4292
 30
0.0
 10
187.5665
 20
-52.4292
 30
0.0
 10
187.5665
 20
-52.4292
 30
0.0
 10
188.3673
 20
-52.4292
 30
0.0
 10
189.0165
 20
-53.0784
 30
0.0
 10
189.0165
 20
-53.8792
 30
0.0
 10
189.0165
 20
-53.8792
 30
0.0
 10
189.0165
 20
-54.68
 30
0.0
 10
188.3673
 20
-55.3292
 30
0.0
 10
187.5665
 20
-55.3292
 30
0.0
 10
187.5665
 20
-55.3292
 30
0.0
 10
186.7657
 20
-55.3292
 30
0.0
 10
186.1165
 20
-54.68
 30
0.0
 10
186.1165
 20
-53.8792
 30
0.0
  0
SPLINE
  5
D6
330
1F
100
AcDbEntity
  8
Layer 1
370
    15
100
AcDbSpline
210
0.0
220
0.0
230
1.0
 70
    11
 71
     3
 72
    20
 73
    16
 74
     0
 42
0.0000000001
 43
0.0000000001
 12
1.0
 22
0.0
 32
0.0
 13
1.0
 23
0.0
 33
0.0
 40
0.0
 40
0.0
 40
0.0
 40
0.0
 40
0.2
 40
0.2
 40
0.2
 40
0.2
 40
0.4
 40
0.4
 40
0.4
 40
0.4
 40
0.6
 40
0.6
 40
0.6
 40
0.6
 40
1.0
 40
1.0
 40
1.0
 40
1.0
 10
244.1165
 20
-53.8792
 30
0.0
 10
244.1165
 20
-53.0784
 30
0.0
 10
244.7657
 20
-52.4292
 30
0.0
 10
245.5665
 20
-52.4292
 30
0.0
 10
245.5665
 20
-52.4292
 30
0.0
 10
246.3673
 20
-52.4292
 30
0.0
 10
247.0165
 20
-53.0784
 30
0.0
 10
247.0165
 20
-53.8792
 30
0.0
 10
247.0165
 20
-53.8792
 30
0.0
 10
247.0165
 20
-54.68
 30
0.0
 10
246.3673
 20
-55.3292
 30
0.0
 10
245.5665
 20
-55.3292
 30
0.0
 10
245.5665
 20
-55.3292
 30
0.0
 10
244.7657
 20
-55.3292
 30
0.0
 10
244.1165
 20
-54.68
 30
0.0
 10
244.1165
 20
-53.8792
 30
0.0
  0
SPLINE
  5
D7
330
1F
100
AcDbEntity
  8
Layer 1
370
    15
100
AcDbSpline
210
0.0
220
0.0
230
1.0
 70
    11
 71
     3
 72
    20
 73
    16
 74
     0
 42
0.0000000001
 43
0.0000000001
 12
1.0
 22
0.0
 32
0.0
 13
1.0
 23
0.0
 33
0.0
 40
0.0
 40
0.0
 40
0.0
 40
0.0
 40
0.2
 40
0.2
 40
0.2
 40
0.2
 40
0.4
 40
0.4
 40
0.4
 40
0.4
 40
0.6
 40
0.6
 40
0.6
 40
0.6
 40
1.0
 40
1.0
 40
1.0
 40
1.0
 10
-118.0927
 20
-133.6547
 30
0.0
 10
-118.0927
 20
-132.9186
 30
0.0
 10
-117.496
 20
-132.3219
 30
0.0
 10
-116.7599
 20
-132.3219
 30
0.0
 10
-116.7599
 20
-132.3219
 30
0.0
 10
-116.0238
 20
-132.3219
 30
0.0
 10
-115.4271
 20
-132.9186
 30
0.0
 10
-115.4271
 20
-133.6547
 30
0.0
 10
-115.4271
 20
-133.6547
 30
0.0
 10
-115.4271
 20
-134.3907
 30
0.0
 10
-116.0238
 20
-134.9874
 30
0.0
 10
-116.7599
 20
-134.9874
 30
0.0
 10
-116.7599
 20
-134.9874
 30
0.0
 10
-117.4959
 20
-134.9874
 30
0.0
 10
-118.0927
 20
-134.3908
 30
0.0
 10
-118.0927
 20
-133.6547
 30
0.0
  0
SPLINE
  5
D8
330
1F
100
AcDbEntity
  8
Layer 1
370
    15
100
AcDbSpline
210
0.0
220
0.0
230
1.0
 70
    11
 71
     3
 72
    20
 73
    16
 74
     0
 42
0.0000000001
 43
0.0000000001
 12
1.0
 22
0.0
 32
0.0
 13
1.0
 23
0.0
 33
0.0
 40
0.0
 40
0.0
 40
0.0
 40
0.0
 40
0.2
 40
0.2
 40
0.2
 40
0.2
 40
0.4
 40
0.4
 40
0.4
 40
0.4
 40
0.6
 40
0.6
 40
0.6
 40
0.6
 40
1.0
 40
1.0
 40
1.0
 40
1.0
 10
-147.1965
 20
-129.3069
 30
0.0
 10
-147.1965
 20
-128.5061
 30
0.0
 10
-146.5473
 20
-127.8569
 30
0.0
 10
-145.7465
 20
-127.8569
 30
0.0
 10
-145.7465
 20
-127.8569
 30
0.0
 10
-144.9457
 20
-127.8569
 30
0.0
 10
-144.2965
 20
-128.5061
 30
0.0
 10
-144.2965
 20
-129.3069
 30
0.0
 10
-144.2965
 20
-129.3069
 30
0.0
 10
-144.2965
 20
-130.1077
 30
0.0
 10
-144.9457
 20
-130.7569
 30
0.0
 10
-145.7465
 20
-130.7569
 30
0.0
 10
-145.7465
 20
-130.7569
 30
0.0
 10
-146.5473
 20
-130.7569
 30
0.0
 10
-147.1965
 20
-130.1077
 30
0.0
 10
-147.1965
 20
-129.3069
 30
0.0
  0
SPLINE
  5
D9
330
1F
100
AcDbEntity
  8
Layer 1
370
    15
100
AcDbSpline
210
0.0
220
0.0
230
1.0
 70
    11
 71
     3
 72
    20
 73
    16
 74
     0
 42
0.0000000001
 43
0.0000000001
 12
1.0
 22
0.0
 32
0.0
 13
1.0
 23
0.0
 33
0.0
 40
0.0
 40
0.0
 40
0.0
 40
0.0
 40
0.2
 40
0.2
 40
0.2
 40
0.2
 40
0.4
 40
0.4
 40
0.4
 40
0.4
 40
0.6
 40
0.6
 40
0.6
 40
0.6
 40
1.0
 40
1.0
 40
1.0
 40
1.0
 10
-60.1291
 20
-135.8792
 30
0.0
 10
-60.1291
 20
-135.1377
 30
0.0
 10
-59.528
 20
-134.5367
 30
0.0
 10
-58.7866
 20
-134.5367
 30
0.0
 10
-58.7866
 20
-134.5367
 30
0.0
 10
-58.0451
 20
-134.5367
 30
0.0
 10
-57.4441
 20
-135.1377
 30
0.0
 10
-57.4441
 20
-135.8792
 30
0.0
 10
-57.4441
 20
-135.8792
 30
0.0
 10
-57.4441
 20
-136.6206
 30
0.0
 10
-58.0451
 20
-137.2217
 30
0.0
 10
-58.7866
 20
-137.2217
 30
0.0
 10
-58.7866
 20
-137.2217
 30
0.0
 10
-59.528
 20
-137.2217
 30
0.0
 10
-60.1291
 20
-136.6207
 30
0.0
 10
-60.1291
 20
-135.8792
 30
0.0
  0
SPLINE
  5
DA
330
1F
100
AcDbEntity
  8
Layer 1
370
    15
100
AcDbSpline
210
0.0
220
0.0
230
1.0
 70
    11
 71
     3
 72
    20
 73
    16
 74
     0
 42
0.0000000001
 43
0.0000000001
 12
1.0
 22
0.0
 32
0.0
 13
1.0
 23
0.0
 33
0.0
 40
0.0
 40
0.0
 40
0.0
 40
0.0
 40
0.2
 40
0.2
 40
0.2
 40
0.2
 40
0.4
 40
0.4
 40
0.4
 40
0.4
 40
0.6
 40
0.6
 40
0.6
 40
0.6
 40
1.0
 40
1.0
 40
1.0
 40
1.0
 10
-2.1753
 20
-135.8792
 30
0.0
 10
-2.1753
 20
-135.127
 30
0.0
 10
-1.5655
 20
-134.5172
 30
0.0
 10
-0.8133
 20
-134.5172
 30
0.0
 10
-0.8133
 20
-134.5172
 30
0.0
 10
-0.0611
 20
-134.5172
 30
0.0
 10
0.5487
 20
-135.127
 30
0.0
 10
0.5487
 20
-135.8792
 30
0.0
 10
0.5487
 20
-135.8792
 30
0.0
 10
0.5487
 20
-136.6314
 30
0.0
 10
-0.0611
 20
-137.2412
 30
0.0
 10
-0.8133
 20
-137.2412
 30
0.0
 10
-0.8133
 20
-137.2412
 30
0.0
 10
-1.5655
 20
-137.2412
 30
0.0
 10
-2.1753
 20
-136.6314
 30
0.0
 10
-2.1753
 20
-135.8792
 30
0.0
  0
SPLINE
  5
DB
330
1F
100
AcDbEntity
  8
Layer 1
370
    15
100
AcDbSpline
210
0.0
220
0.0
230
1.0
 70
    11
 71
     3
 72
    20
 73
    16
 74
     0
 42
0.0000000001
 43
0.0000000001
 12
1.0
 22
0.0
 32
0.0
 13
1.0
 23
0.0
 33
0.0
 40
0.0
 40
0.0
 40
0.0
 40
0.0
 40
0.2
 40
0.2
 40
0.2
 40
0.2
 40
0.4
 40
0.4
 40
0.4
 40
0.4
 40
0.6
 40
0.6
 40
0.6
 40
0.6
 40
1.0
 40
1.0
 40
1.0
 40
1.0
 10
55.7784
 20
-135.8792
 30
0.0
 10
55.7784
 20
-135.1162
 30
0.0
 10
56.397
 20
-134.4976
 30
0.0
 10
57.16
 20
-134.4976
 30
0.0
 10
57.16
 20
-134.4976
 30
0.0
 10
57.923
 20
-134.4976
 30
0.0
 10
58.5415
 20
-135.1162
 30
0.0
 10
58.5415
 20
-135.8792
 30
0.0
 10
58.5415
 20
-135.8792
 30
0.0
 10
58.5415
 20
-136.6422
 30
0.0
 10
57.923
 20
-137.2608
 30
0.0
 10
57.16
 20
-137.2608
 30
0.0
 10
57.16
 20
-137.2608
 30
0.0
 10
56.397
 20
-137.2608
 30
0.0
 10
55.7784
 20
-136.6422
 30
0.0
 10
55.7784
 20
-135.8792
 30
0.0
  0
SPLINE
  5
DC
330
1F
100
AcDbEntity
  8
Layer 1
370
    15
100
AcDbSpline
210
0.0
220
0.0
230
1.0
 70
    11
 71
     3
 72
    20
 73
    16
 74
     0
 42
0.0000000001
 43
0.0000000001
 12
1.0
 22
0.0
 32
0.0
 13
1.0
 23
0.0
 33
0.0
 40
0.0
 40
0.0
 40
0.0
 40
0.0
 40
0.2
 40
0.2
 40
0.2
 40
0.2
 40
0.4
 40
0.4
 40
0.4
 40
0.4
 40
0.6
 40
0.6
 40
0.6
 40
0.6
 40
1.0
 40
1.0
 40
1.0
 40
1.0
 10
113.7322
 20
-135.8792
 30
0.0
 10
113.7322
 20
-135.1054
 30
0.0
 10
114.3595
 20
-134.4781
 30
0.0
 10
115.1333
 20
-134.4781
 30
0.0
 10
115.1333
 20
-134.4781
 30
0.0
 10
115.9071
 20
-134.4781
 30
0.0
 10
116.5344
 20
-135.1054
 30
0.0
 10
116.5344
 20
-135.8792
 30
0.0
 10
116.5344
 20
-135.8792
 30
0.0
 10
116.5344
 20
-136.653
 30
0.0
 10
115.9071
 20
-137.2803
 30
0.0
 10
115.1333
 20
-137.2803
 30
0.0
 10
115.1333
 20
-137.2803
 30
0.0
 10
114.3595
 20
-137.2803
 30
0.0
 10
113.7322
 20
-136.653
 30
0.0
 10
113.7322
 20
-135.8792
 30
0.0
  0
SPLINE
  5
DD
330
1F
100
AcDbEntity
  8
Layer 1
370
    15
100
AcDbSpline
210
0.0
220
0.0
230
1.0
 70
    11
 71
     3
 72
    20
 73
    16
 74
     0
 42
0.0000000001
 43
0.0000000001
 12
1.0
 22
0.0
 32
0.0
 13
1.0
 23
0.0
 33
0.0
 40
0.0
 40
0.0
 40
0.0
 40
0.0
 40
0.2
 40
0.2
 40
0.2
 40
0.2
 40
0.4
 40
0.4
 40
0.4
 40
0.4
 40
0.6
 40
0.6
 40
0.6
 40
0.6
 40
1.0
 40
1.0
 40
1.0
 40
1.0
 10
171.6859
 20
-135.8792
 30
0.0
 10
171.6859
 20
-135.0946
 30
0.0
 10
172.322
 20
-134.4586
 30
0.0
 10
173.1066
 20
-134.4586
 30
0.0
 10
173.1066
 20
-134.4586
 30
0.0
 10
173.8912
 20
-134.4586
 30
0.0
 10
174.5272
 20
-135.0946
 30
0.0
 10
174.5272
 20
-135.8792
 30
0.0
 10
174.5272
 20
-135.8792
 30
0.0
 10
174.5272
 20
-136.6638
 30
0.0
 10
173.8912
 20
-137.2998
 30
0.0
 10
173.1066
 20
-137.2998
 30
0.0
 10
173.1066
 20
-137.2998
 30
0.0
 10
172.322
 20
-137.2999
 30
0.0
 10
171.6859
 20
-136.6638
 30
0.0
 10
171.6859
 20
-135.8792
 30
0.0
  0
SPLINE
  5
DE
330
1F
100
AcDbEntity
  8
Layer 1
370
    15
100
AcDbSpline
210
0.0
220
0.0
230
1.0
 70
    11
 71
     3
 72
    20
 73
    16
 74
     0
 42
0.0000000001
 43
0.0000000001
 12
1.0
 22
0.0
 32
0.0
 13
1.0
 23
0.0
 33
0.0
 40
0.0
 40
0.0
 40
0.0
 40
0.0
 40
0.2
 40
0.2
 40
0.2
 40
0.2
 40
0.4
 40
0.4
 40
0.4
 40
0.4
 40
0.6
 40
0.6
 40
0.6
 40
0.6
 40
1.0
 40
1.0
 40
1.0
 40
1.0
 10
229.6396
 20
-135.8792
 30
0.0
 10
229.6396
 20
-135.0838
 30
0.0
 10
230.2844
 20
-134.439
 30
0.0
 10
231.0799
 20
-134.439
 30
0.0
 10
231.0799
 20
-134.439
 30
0.0
 10
231.8753
 20
-134.439
 30
0.0
 10
232.5201
 20
-135.0838
 30
0.0
 10
232.5201
 20
-135.8792
 30
0.0
 10
232.5201
 20
-135.8792
 30
0.0
 10
232.5201
 20
-136.6746
 30
0.0
 10
231.8753
 20
-137.3194
 30
0.0
 10
231.0799
 20
-137.3194
 30
0.0
 10
231.0799
 20
-137.3194
 30
0.0
 10
230.2845
 20
-137.3194
 30
0.0
 10
229.6396
 20
-136.6746
 30
0.0
 10
229.6396
 20
-135.8792
 30
0.0
  0
SPLINE
  5
DF
330
1F
100
AcDbEntity
  8
Layer 1
370
    15
100
AcDbSpline
210
0.0
220
0.0
230
1.0
 70
    24
 71
     3
 72
     8
 73
     4
 74
     0
 42
0.0000000001
 43
0.0000000001
 12
1.0
 22
0.0
 32
0.0
 13
1.0
 23
0.0
 33
0.0
 40
0.0
 40
0.0
 40
0.0
 40
0.0
 40
1.0
 40
1.0
 40
1.0
 40
1.0
 10
294.0665
 20
-46.8793
 30
0.0
 10
294.0665
 20
-46.8793
 30
0.0
 10
294.0665
 20
-93.4292
 30
0.0
 10
294.0665
 20
-93.4292
 30
0.0
  0
SPLINE
  5
E0
330
1F
100
AcDbEntity
  8
Layer 1
370
    15
100
AcDbSpline
210
0.0
220
0.0
230
1.0
 70
    24
 71
     3
 72
     8
 73
     4
 74
     0
 42
0.0000000001
 43
0.0000000001
 12
1.0
 22
0.0
 32
0.0
 13
1.0
 23
0.0
 33
0.0
 40
0.0
 40
0.0
 40
0.0
 40
0.0
 40
1.0
 40
1.0
 40
1.0
 40
1.0
 10
294.0665
 20
-93.4292
 30
0.0
 10
294.0665
 20
-93.4292
 30
0.0
 10
144.0665
 20
-93.4292
 30
0.0
 10
144.0665
 20
-93.4292
 30
0.0
  0
SPLINE
  5
E1
330
1F
100
AcDbEntity
  8
Layer 1
370
    15
100
AcDbSpline
210
0.0
220
0.0
230
1.0
 70
    24
 71
     3
 72
     8
 73
     4
 74
     0
 42
0.0000000001
 43
0.0000000001
 12
1.0
 22
0.0
 32
0.0
 13
1.0
 23
0.0
 33
0.0
 40
0.0
 40
0.0
 40
0.0
 40
0.0
 40
1.0
 40
1.0
 40
1.0
 40
1.0
 10
144.0665
 20
-93.4292
 30
0.0
 10
144.0665
 20
-93.4292
 30
0.0
 10
144.0665
 20
-68.8792
 30
0.0
 10
144.0665
 20
-68.8792
 30
0.0
  0
SPLINE
  5
E2
330
1F
100
AcDbEntity
  8
Layer 1
370
    15
100
AcDbSpline
210
0.0
220
0.0
230
1.0
 70
    24
 71
     3
 72
     8
 73
     4
 74
     0
 42
0.0000000001
 43
0.0000000001
 12
1.0
 22
0.0
 32
0.0
 13
1.0
 23
0.0
 33
0.0
 40
0.0
 40
0.0
 40
0.0
 40
0.0
 40
1.0
 40
1.0
 40
1.0
 40
1.0
 10
144.0665
 20
-68.8792
 30
0.0
 10
144.0665
 20
-68.8792
 30
0.0
 10
141.0665
 20
-68.8792
 30
0.0
 10
141.0665
 20
-68.8792
 30
0.0
  0
SPLINE
  5
E3
330
1F
100
AcDbEntity
  8
Layer 1
370
    15
100
AcDbSpline
210
0.0
220
0.0
230
1.0
 70
    24
 71
     3
 72
     8
 73
     4
 74
     0
 42
0.0000000001
 43
0.0000000001
 12
1.0
 22
0.0
 32
0.0
 13
1.0
 23
0.0
 33
0.0
 40
0.0
 40
0.0
 40
0.0
 40
0.0
 40
1.0
 40
1.0
 40
1.0
 40
1.0
 10
141.0665
 20
-68.8792
 30
0.0
 10
141.0665
 20
-68.8792
 30
0.0
 10
141.0665
 20
-93.4292
 30
0.0
 10
141.0665
 20
-93.4292
 30
0.0
  0
SPLINE
  5
E4
330
1F
100
AcDbEntity
  8
Layer 1
370
    15
100
AcDbSpline
210
0.0
220
0.0
230
1.0
 70
    24
 71
     3
 72
     8
 73
     4
 74
     0
 42
0.0000000001
 43
0.0000000001
 12
1.0
 22
0.0
 32
0.0
 13
1.0
 23
0.0
 33
0.0
 40
0.0
 40
0.0
 40
0.0
 40
0.0
 40
1.0
 40
1.0
 40
1.0
 40
1.0
 10
141.0665
 20
-93.4292
 30
0.0
 10
141.0665
 20
-93.4292
 30
0.0
 10
34.0665
 20
-93.4292
 30
0.0
 10
34.0665
 20
-93.4292
 30
0.0
  0
SPLINE
  5
E5
330
1F
100
AcDbEntity
  8
Layer 1
370
    15
100
AcDbSpline
210
0.0
220
0.0
230
1.0
 70
    24
 71
     3
 72
     8
 73
     4
 74
     0
 42
0.0000000001
 43
0.0000000001
 12
1.0
 22
0.0
 32
0.0
 13
1.0
 23
0.0
 33
0.0
 40
0.0
 40
0.0
 40
0.0
 40
0.0
 40
1.0
 40
1.0
 40
1.0
 40
1.0
 10
34.0665
 20
-93.4292
 30
0.0
 10
34.0665
 20
-93.4292
 30
0.0
 10
34.0665
 20
-96.3292
 30
0.0
 10
34.0665
 20
-96.3292
 30
0.0
  0
SPLINE
  5
E6
330
1F
100
AcDbEntity
  8
Layer 1
370
    15
100
AcDbSpline
210
0.0
220
0.0
230
1.0
 70
    24
 71
     3
 72
     8
 73
     4
 74
     0
 42
0.0000000001
 43
0.0000000001
 12
1.0
 22
0.0
 32
0.0
 13
1.0
 23
0.0
 33
0.0
 40
0.0
 40
0.0
 40
0.0
 40
0.0
 40
1.0
 40
1.0
 40
1.0
 40
1.0
 10
34.0665
 20
-96.3292
 30
0.0
 10
34.0665
 20
-96.3292
 30
0.0
 10
141.0665
 20
-96.3292
 30
0.0
 10
141.0665
 20
-96.3292
 30
0.0
  0
SPLINE
  5
E7
330
1F
100
AcDbEntity
  8
Layer 1
370
    15
100
AcDbSpline
210
0.0
220
0.0
230
1.0
 70
    24
 71
     3
 72
     8
 73
     4
 74
     0
 42
0.0000000001
 43
0.0000000001
 12
1.0
 22
0.0
 32
0.0
 13
1.0
 23
0.0
 33
0.0
 40
0.0
 40
0.0
 40
0.0
 40
0.0
 40
1.0
 40
1.0
 40
1.0
 40
1.0
 10
141.0665
 20
-96.3292
 30
0.0
 10
141.0665
 20
-96.3292
 30
0.0
 10
141.0665
 20
-120.8792
 30
0.0
 10
141.0665
 20
-120.8792
 30
0.0
  0
SPLINE
  5
E8
330
1F
100
AcDbEntity
  8
Layer 1
370
    15
100
AcDbSpline
210
0.0
220
0.0
230
1.0
 70
    24
 71
     3
 72
     8
 73
     4
 74
     0
 42
0.0000000001
 43
0.0000000001
 12
1.0
 22
0.0
 32
0.0
 13
1.0
 23
0.0
 33
0.0
 40
0.0
 40
0.0
 40
0.0
 40
0.0
 40
1.0
 40
1.0
 40
1.0
 40
1.0
 10
141.0665
 20
-120.8792
 30
0.0
 10
141.0665
 20
-120.8792
 30
0.0
 10
144.0665
 20
-120.8792
 30
0.0
 10
144.0665
 20
-120.8792
 30
0.0
  0
SPLINE
  5
E9
330
1F
100
AcDbEntity
  8
Layer 1
370
    15
100
AcDbSpline
210
0.0
220
0.0
230
1.0
 70
    24
 71
     3
 72
     8
 73
     4
 74
     0
 42
0.0000000001
 43
0.0000000001
 12
1.0
 22
0.0
 32
0.0
 13
1.0
 23
0.0
 33
0.0
 40
0.0
 40
0.0
 40
0.0
 40
0.0
 40
1.0
 40
1.0
 40
1.0
 40
1.0
 10
144.0665
 20
-120.8792
 30
0.0
 10
144.0665
 20
-120.8792
 30
0.0
 10
144.0665
 20
-96.3292
 30
0.0
 10
144.0665
 20
-96.3292
 30
0.0
  0
SPLINE
  5
EA
330
1F
100
AcDbEntity
  8
Layer 1
370
    15
100
AcDbSpline
210
0.0
220
0.0
230
1.0
 70
    24
 71
     3
 72
     8
 73
     4
 74
     0
 42
0.0000000001
 43
0.0000000001
 12
1.0
 22
0.0
 32
0.0
 13
1.0
 23
0.0
 33
0.0
 40
0.0
 40
0.0
 40
0.0
 40
0.0
 40
1.0
 40
1.0
 40
1.0
 40
1.0
 10
144.0665
 20
-96.3292
 30
0.0
 10
144.0665
 20
-96.3292
 30
0.0
 10
294.0665
 20
-96.3292
 30
0.0
 10
294.0665
 20
-96.3292
 30
0.0
  0
SPLINE
  5
EB
330
1F
100
AcDbEntity
  8
Layer 1
370
    15
100
AcDbSpline
210
0.0
220
0.0
230
1.0
 70
    24
 71
     3
 72
     8
 73
     4
 74
     0
 42
0.0000000001
 43
0.0000000001
 12
1.0
 22
0.0
 32
0.0
 13
1.0
 23
0.0
 33
0.0
 40
0.0
 40
0.0
 40
0.0
 40
0.0
 40
1.0
 40
1.0
 40
1.0
 40
1.0
 10
294.0665
 20
-96.3292
 30
0.0
 10
294.0665
 20
-96.3292
 30
0.0
 10
294.0665
 20
-132.8792
 30
0.0
 10
294.0665
 20
-132.8792
 30
0.0
  0
SPLINE
  5
EC
330
1F
100
AcDbEntity
  8
Layer 1
370
    15
100
AcDbSpline
210
0.0
220
0.0
230
1.0
 70
    24
 71
     3
 72
     8
 73
     4
 74
     0
 42
0.0000000001
 43
0.0000000001
 12
1.0
 22
0.0
 32
0.0
 13
1.0
 23
0.0
 33
0.0
 40
0.0
 40
0.0
 40
0.0
 40
0.0
 40
1.0
 40
1.0
 40
1.0
 40
1.0
 10
294.0665
 20
-132.8792
 30
0.0
 10
294.0665
 20
-132.8792
 30
0.0
 10
284.0665
 20
-132.8792
 30
0.0
 10
284.0665
 20
-132.8792
 30
0.0
  0
SPLINE
  5
ED
330
1F
100
AcDbEntity
  8
Layer 1
370
    15
100
AcDbSpline
210
0.0
220
0.0
230
1.0
 70
     8
 71
     3
 72
    12
 73
     8
 74
     0
 42
0.0000000001
 43
0.0000000001
 12
1.0
 22
0.0
 32
0.0
 13
1.0
 23
0.0
 33
0.0
 40
0.0
 40
0.0
 40
0.0
 40
0.0
 40
0.3333333333333333
 40
0.3333333333333333
 40
0.3333333333333333
 40
0.3333333333333333
 40
1.0
 40
1.0
 40
1.0
 40
1.0
 10
284.0665
 20
-138.8792
 30
0.0
 10
282.4096
 20
-138.8792
 30
0.0
 10
281.0665
 20
-137.5361
 30
0.0
 10
281.0665
 20
-135.8792
 30
0.0
 10
281.0665
 20
-135.8792
 30
0.0
 10
281.0665
 20
-134.2224
 30
0.0
 10
282.4096
 20
-132.8792
 30
0.0
 10
284.0665
 20
-132.8792
 30
0.0
  0
SPLINE
  5
EE
330
1F
100
AcDbEntity
  8
Layer 1
370
    15
100
AcDbSpline
210
0.0
220
0.0
230
1.0
 70
    24
 71
     3
 72
     8
 73
     4
 74
     0
 42
0.0000000001
 43
0.0000000001
 12
1.0
 22
0.0
 32
0.0
 13
1.0
 23
0.0
 33
0.0
 40
0.0
 40
0.0
 40
0.0
 40
0.0
 40
1.0
 40
1.0
 40
1.0
 40
1.0
 10
284.0665
 20
-138.8792
 30
0.0
 10
284.0665
 20
-138.8792
 30
0.0
 10
294.0665
 20
-138.8792
 30
0.0
 10
294.0665
 20
-138.8792
 30
0.0
  0
SPLINE
  5
EF
330
1F
100
AcDbEntity
  8
Layer 1
370
    15
100
AcDbSpline
210
0.0
220
0.0
230
1.0
 70
    24
 71
     3
 72
     8
 73
     4
 74
     0
 42
0.0000000001
 43
0.0000000001
 12
1.0
 22
0.0
 32
0.0
 13
1.0
 23
0.0
 33
0.0
 40
0.0
 40
0.0
 40
0.0
 40
0.0
 40
1.0
 40
1.0
 40
1.0
 40
1.0
 10
294.0665
 20
-138.8792
 30
0.0
 10
294.0665
 20
-138.8792
 30
0.0
 10
294.0665
 20
-142.8791
 30
0.0
 10
294.0665
 20
-142.8791
 30
0.0
  0
SPLINE
  5
F0
330
1F
100
AcDbEntity
  8
Layer 1
370
    15
100
AcDbSpline
210
0.0
220
0.0
230
1.0
 70
    24
 71
     3
 72
     8
 73
     4
 74
     0
 42
0.0000000001
 43
0.0000000001
 12
1.0
 22
0.0
 32
0.0
 13
1.0
 23
0.0
 33
0.0
 40
0.0
 40
0.0
 40
0.0
 40
0.0
 40
1.0
 40
1.0
 40
1.0
 40
1.0
 10
294.0665
 20
-142.8791
 30
0.0
 10
294.0665
 20
-142.8791
 30
0.0
 10
275.064
 20
-142.8791
 30
0.0
 10
275.064
 20
-142.8791
 30
0.0
  0
SPLINE
  5
F1
330
1F
100
AcDbEntity
  8
Layer 1
370
    15
100
AcDbSpline
210
0.0
220
0.0
230
1.0
 70
     8
 71
     3
 72
     8
 73
     4
 74
     0
 42
0.0000000001
 43
0.0000000001
 12
1.0
 22
0.0
 32
0.0
 13
1.0
 23
0.0
 33
0.0
 40
0.0
 40
0.0
 40
0.0
 40
0.0
 40
1.0
 40
1.0
 40
1.0
 40
1.0
 10
275.064
 20
-142.8791
 30
0.0
 10
274.3994
 20
-142.8791
 30
0.0
 10
273.7352
 20
-142.846
 30
0.0
 10
273.074
 20
-142.7799
 30
0.0
  0
SPLINE
  5
F2
330
1F
100
AcDbEntity
  8
Layer 1
370
    15
100
AcDbSpline
210
0.0
220
0.0
230
1.0
 70
    24
 71
     3
 72
     8
 73
     4
 74
     0
 42
0.0000000001
 43
0.0000000001
 12
1.0
 22
0.0
 32
0.0
 13
1.0
 23
0.0
 33
0.0
 40
0.0
 40
0.0
 40
0.0
 40
0.0
 40
1.0
 40
1.0
 40
1.0
 40
1.0
 10
273.074
 20
-142.7799
 30
0.0
 10
273.074
 20
-142.7799
 30
0.0
 10
245.059
 20
-139.9785
 30
0.0
 10
245.059
 20
-139.9785
 30
0.0
  0
SPLINE
  5
F3
330
1F
100
AcDbEntity
  8
Layer 1
370
    15
100
AcDbSpline
210
0.0
220
0.0
230
1.0
 70
     8
 71
     3
 72
     8
 73
     4
 74
     0
 42
0.0000000001
 43
0.0000000001
 12
1.0
 22
0.0
 32
0.0
 13
1.0
 23
0.0
 33
0.0
 40
0.0
 40
0.0
 40
0.0
 40
0.0
 40
1.0
 40
1.0
 40
1.0
 40
1.0
 10
243.069
 20
-139.8792
 30
0.0
 10
243.7336
 20
-139.8792
 30
0.0
 10
244.3978
 20
-139.9123
 30
0.0
 10
245.059
 20
-139.9785
 30
0.0
  0
SPLINE
  5
F4
330
1F
100
AcDbEntity
  8
Layer 1
370
    15
100
AcDbSpline
210
0.0
220
0.0
230
1.0
 70
    24
 71
     3
 72
     8
 73
     4
 74
     0
 42
0.0000000001
 43
0.0000000001
 12
1.0
 22
0.0
 32
0.0
 13
1.0
 23
0.0
 33
0.0
 40
0.0
 40
0.0
 40
0.0
 40
0.0
 40
1.0
 40
1.0
 40
1.0
 40
1.0
 10
243.069
 20
-139.8792
 30
0.0
 10
243.069
 20
-139.8792
 30
0.0
 10
-100.3543
 20
-139.8792
 30
0.0
 10
-100.3543
 20
-139.8792
 30
0.0
  0
SPLINE
  5
F5
330
1F
100
AcDbEntity
  8
Layer 1
370
    15
100
AcDbSpline
210
0.0
220
0.0
230
1.0
 70
     8
 71
     3
 72
     8
 73
     4
 74
     0
 42
0.0000000001
 43
0.0000000001
 12
1.0
 22
0.0
 32
0.0
 13
1.0
 23
0.0
 33
0.0
 40
0.0
 40
0.0
 40
0.0
 40
0.0
 40
1.0
 40
1.0
 40
1.0
 40
1.0
 10
-100.3543
 20
-139.8792
 30
0.0
 10
-101.4055
 20
-139.8792
 30
0.0
 10
-102.455
 20
-139.7963
 30
0.0
 10
-103.4931
 20
-139.6314
 30
0.0
  0
SPLINE
  5
F6
330
1F
100
AcDbEntity
  8
Layer 1
370
    15
100
AcDbSpline
210
0.0
220
0.0
230
1.0
 70
    24
 71
     3
 72
     8
 73
     4
 74
     0
 42
0.0000000001
 43
0.0000000001
 12
1.0
 22
0.0
 32
0.0
 13
1.0
 23
0.0
 33
0.0
 40
0.0
 40
0.0
 40
0.0
 40
0.0
 40
1.0
 40
1.0
 40
1.0
 40
1.0
 10
-103.4931
 20
-139.6314
 30
0.0
 10
-103.4931
 20
-139.6314
 30
0.0
 10
-200.2474
 20
-124.2563
 30
0.0
 10
-200.2474
 20
-124.2563
 30
0.0
  0
SPLINE
  5
F7
330
1F
100
AcDbEntity
  8
Layer 1
370
    15
100
AcDbSpline
210
0.0
220
0.0
230
1.0
 70
     8
 71
     3
 72
     8
 73
     4
 74
     0
 42
0.0000000001
 43
0.0000000001
 12
1.0
 22
0.0
 32
0.0
 13
1.0
 23
0.0
 33
0.0
 40
0.0
 40
0.0
 40
0.0
 40
0.0
 40
1.0
 40
1.0
 40
1.0
 40
1.0
 10
-200.2474
 20
-124.2563
 30
0.0
 10
-201.2186
 20
-124.102
 30
0.0
 10
-201.9335
 20
-123.2645
 30
0.0
 10
-201.9335
 20
-122.2811
 30
0.0
  0
SPLINE
  5
F8
330
1F
100
AcDbEntity
  8
Layer 1
370
    15
100
AcDbSpline
210
0.0
220
0.0
230
1.0
 70
    24
 71
     3
 72
     8
 73
     4
 74
     0
 42
0.0000000001
 43
0.0000000001
 12
1.0
 22
0.0
 32
0.0
 13
1.0
 23
0.0
 33
0.0
 40
0.0
 40
0.0
 40
0.0
 40
0.0
 40
1.0
 40
1.0
 40
1.0
 40
1.0
 10
-201.9335
 20
-122.2811
 30
0.0
 10
-201.9335
 20
-122.2811
 30
0.0
 10
-201.9335
 20
-120.8792
 30
0.0
 10
-201.9335
 20
-120.8792
 30
0.0
  0
SPLINE
  5
F9
330
1F
100
AcDbEntity
  8
Layer 1
370
    15
100
AcDbSpline
210
0.0
220
0.0
230
1.0
 70
    24
 71
     3
 72
     8
 73
     4
 74
     0
 42
0.0000000001
 43
0.0000000001
 12
1.0
 22
0.0
 32
0.0
 13
1.0
 23
0.0
 33
0.0
 40
0.0
 40
0.0
 40
0.0
 40
0.0
 40
1.0
 40
1.0
 40
1.0
 40
1.0
 10
-201.9335
 20
-120.8792
 30
0.0
 10
-201.9335
 20
-120.8792
 30
0.0
 10
-199.2335
 20
-120.8792
 30
0.0
 10
-199.2335
 20
-120.8792
 30
0.0
  0
SPLINE
  5
FA
330
1F
100
AcDbEntity
  8
Layer 1
370
    15
100
AcDbSpline
210
0.0
220
0.0
230
1.0
 70
    24
 71
     3
 72
     8
 73
     4
 74
     0
 42
0.0000000001
 43
0.0000000001
 12
1.0
 22
0.0
 32
0.0
 13
1.0
 23
0.0
 33
0.0
 40
0.0
 40
0.0
 40
0.0
 40
0.0
 40
1.0
 40
1.0
 40
1.0
 40
1.0
 10
-199.2335
 20
-120.8792
 30
0.0
 10
-199.2335
 20
-120.8792
 30
0.0
 10
-199.2335
 20
-68.8792
 30
0.0
 10
-199.2335
 20
-68.8792
 30
0.0
  0
SPLINE
  5
FB
330
1F
100
AcDbEntity
  8
Layer 1
370
    15
100
AcDbSpline
210
0.0
220
0.0
230
1.0
 70
    24
 71
     3
 72
     8
 73
     4
 74
     0
 42
0.0000000001
 43
0.0000000001
 12
1.0
 22
0.0
 32
0.0
 13
1.0
 23
0.0
 33
0.0
 40
0.0
 40
0.0
 40
0.0
 40
0.0
 40
1.0
 40
1.0
 40
1.0
 40
1.0
 10
-199.2335
 20
-68.8792
 30
0.0
 10
-199.2335
 20
-68.8792
 30
0.0
 10
-201.9335
 20
-68.8792
 30
0.0
 10
-201.9335
 20
-68.8792
 30
0.0
  0
SPLINE
  5
FC
330
1F
100
AcDbEntity
  8
Layer 1
370
    15
100
AcDbSpline
210
0.0
220
0.0
230
1.0
 70
    24
 71
     3
 72
     8
 73
     4
 74
     0
 42
0.0000000001
 43
0.0000000001
 12
1.0
 22
0.0
 32
0.0
 13
1.0
 23
0.0
 33
0.0
 40
0.0
 40
0.0
 40
0.0
 40
0.0
 40
1.0
 40
1.0
 40
1.0
 40
1.0
 10
-201.9335
 20
-68.8792
 30
0.0
 10
-201.9335
 20
-68.8792
 30
0.0
 10
-201.9335
 20
-67.4773
 30
0.0
 10
-201.9335
 20
-67.4773
 30
0.0
  0
SPLINE
  5
FD
330
1F
100
AcDbEntity
  8
Layer 1
370
    15
100
AcDbSpline
210
0.0
220
0.0
230
1.0
 70
     8
 71
     3
 72
     8
 73
     4
 74
     0
 42
0.0000000001
 43
0.0000000001
 12
1.0
 22
0.0
 32
0.0
 13
1.0
 23
0.0
 33
0.0
 40
0.0
 40
0.0
 40
0.0
 40
0.0
 40
1.0
 40
1.0
 40
1.0
 40
1.0
 10
-201.9335
 20
-67.4773
 30
0.0
 10
-201.9335
 20
-66.4939
 30
0.0
 10
-201.2186
 20
-65.6564
 30
0.0
 10
-200.2474
 20
-65.5021
 30
0.0
  0
SPLINE
  5
FE
330
1F
100
AcDbEntity
  8
Layer 1
370
    15
100
AcDbSpline
210
0.0
220
0.0
230
1.0
 70
    24
 71
     3
 72
     8
 73
     4
 74
     0
 42
0.0000000001
 43
0.0000000001
 12
1.0
 22
0.0
 32
0.0
 13
1.0
 23
0.0
 33
0.0
 40
0.0
 40
0.0
 40
0.0
 40
0.0
 40
1.0
 40
1.0
 40
1.0
 40
1.0
 10
-200.2474
 20
-65.5021
 30
0.0
 10
-200.2474
 20
-65.5021
 30
0.0
 10
-103.4931
 20
-50.127
 30
0.0
 10
-103.4931
 20
-50.127
 30
0.0
  0
SPLINE
  5
FF
330
1F
100
AcDbEntity
  8
Layer 1
370
    15
100
AcDbSpline
210
0.0
220
0.0
230
1.0
 70
     8
 71
     3
 72
     8
 73
     4
 74
     0
 42
0.0000000001
 43
0.0000000001
 12
1.0
 22
0.0
 32
0.0
 13
1.0
 23
0.0
 33
0.0
 40
0.0
 40
0.0
 40
0.0
 40
0.0
 40
1.0
 40
1.0
 40
1.0
 40
1.0
 10
-103.4931
 20
-50.127
 30
0.0
 10
-102.455
 20
-49.9621
 30
0.0
 10
-101.4055
 20
-49.8792
 30
0.0
 10
-100.3543
 20
-49.8792
 30
0.0
  0
SPLINE
  5
100
330
1F
100
AcDbEntity
  8
Layer 1
370
    15
100
AcDbSpline
210
0.0
220
0.0
230
1.0
 70
    24
 71
     3
 72
     8
 73
     4
 74
     0
 42
0.0000000001
 43
0.0000000001
 12
1.0
 22
0.0
 32
0.0
 13
1.0
 23
0.0
 33
0.0
 40
0.0
 40
0.0
 40
0.0
 40
0.0
 40
1.0
 40
1.0
 40
1.0
 40
1.0
 10
-100.3543
 20
-49.8792
 30
0.0
 10
-100.3543
 20
-49.8792
 30
0.0
 10
243.069
 20
-49.8792
 30
0.0
 10
243.069
 20
-49.8792
 30
0.0
  0
SPLINE
  5
101
330
1F
100
AcDbEntity
  8
Layer 1
370
    15
100
AcDbSpline
210
0.0
220
0.0
230
1.0
 70
     8
 71
     3
 72
     8
 73
     4
 74
     0
 42
0.0000000001
 43
0.0000000001
 12
1.0
 22
0.0
 32
0.0
 13
1.0
 23
0.0
 33
0.0
 40
0.0
 40
0.0
 40
0.0
 40
0.0
 40
1.0
 40
1.0
 40
1.0
 40
1.0
 10
245.059
 20
-49.7799
 30
0.0
 10
244.3978
 20
-49.8461
 30
0.0
 10
243.7336
 20
-49.8792
 30
0.0
 10
243.069
 20
-49.8792
 30
0.0
  0
SPLINE
  5
102
330
1F
100
AcDbEntity
  8
Layer 1
370
    15
100
AcDbSpline
210
0.0
220
0.0
230
1.0
 70
    24
 71
     3
 72
     8
 73
     4
 74
     0
 42
0.0000000001
 43
0.0000000001
 12
1.0
 22
0.0
 32
0.0
 13
1.0
 23
0.0
 33
0.0
 40
0.0
 40
0.0
 40
0.0
 40
0.0
 40
1.0
 40
1.0
 40
1.0
 40
1.0
 10
245.059
 20
-49.7799
 30
0.0
 10
245.059
 20
-49.7799
 30
0.0
 10
273.074
 20
-46.9785
 30
0.0
 10
273.074
 20
-46.9785
 30
0.0
  0
SPLINE
  5
103
330
1F
100
AcDbEntity
  8
Layer 1
370
    15
100
AcDbSpline
210
0.0
220
0.0
230
1.0
 70
     8
 71
     3
 72
     8
 73
     4
 74
     0
 42
0.0000000001
 43
0.0000000001
 12
1.0
 22
0.0
 32
0.0
 13
1.0
 23
0.0
 33
0.0
 40
0.0
 40
0.0
 40
0.0
 40
0.0
 40
1.0
 40
1.0
 40
1.0
 40
1.0
 10
273.074
 20
-46.9785
 30
0.0
 10
273.7352
 20
-46.9124
 30
0.0
 10
274.3994
 20
-46.8793
 30
0.0
 10
275.064
 20
-46.8793
 30
0.0
  0
SPLINE
  5
104
330
1F
100
AcDbEntity
  8
Layer 1
370
    15
100
AcDbSpline
210
0.0
220
0.0
230
1.0
 70
    24
 71
     3
 72
     8
 73
     4
 74
     0
 42
0.0000000001
 43
0.0000000001
 12
1.0
 22
0.0
 32
0.0
 13
1.0
 23
0.0
 33
0.0
 40
0.0
 40
0.0
 40
0.0
 40
0.0
 40
1.0
 40
1.0
 40
1.0
 40
1.0
 10
275.064
 20
-46.8793
 30
0.0
 10
275.064
 20
-46.8793
 30
0.0
 10
294.0665
 20
-46.8793
 30
0.0
 10
294.0665
 20
-46.8793
 30
0.0
  0
SPLINE
  5
105
330
1F
100
AcDbEntity
  8
Layer 1
370
    15
100
AcDbSpline
210
0.0
220
0.0
230
1.0
 70
    11
 71
     3
 72
    20
 73
    16
 74
     0
 42
0.0000000001
 43
0.0000000001
 12
1.0
 22
0.0
 32
0.0
 13
1.0
 23
0.0
 33
0.0
 40
0.0
 40
0.0
 40
0.0
 40
0.0
 40
0.2
 40
0.2
 40
0.2
 40
0.2
 40
0.4
 40
0.4
 40
0.4
 40
0.4
 40
0.6
 40
0.6
 40
0.6
 40
0.6
 40
1.0
 40
1.0
 40
1.0
 40
1.0
 10
258.6165
 20
-135.8792
 30
0.0
 10
258.6165
 20
-135.0784
 30
0.0
 10
259.2657
 20
-134.4292
 30
0.0
 10
260.0665
 20
-134.4292
 30
0.0
 10
260.0665
 20
-134.4292
 30
0.0
 10
260.8673
 20
-134.4292
 30
0.0
 10
261.5165
 20
-135.0784
 30
0.0
 10
261.5165
 20
-135.8792
 30
0.0
 10
261.5165
 20
-135.8792
 30
0.0
 10
261.5165
 20
-136.68
 30
0.0
 10
260.8673
 20
-137.3292
 30
0.0
 10
260.0665
 20
-137.3292
 30
0.0
 10
260.0665
 20
-137.3292
 30
0.0
 10
259.2657
 20
-137.3292
 30
0.0
 10
258.6165
 20
-136.68
 30
0.0
 10
258.6165
 20
-135.8792
 30
0.0
  0
SPLINE
  5
106
330
1F
100
AcDbEntity
  8
Layer 1
370
    15
100
AcDbSpline
210
0.0
220
0.0
230
1.0
 70
    11
 71
     3
 72
    20
 73
    16
 74
     0
 42
0.0000000001
 43
0.0000000001
 12
1.0
 22
0.0
 32
0.0
 13
1.0
 23
0.0
 33
0.0
 40
0.0
 40
0.0
 40
0.0
 40
0.0
 40
0.2
 40
0.2
 40
0.2
 40
0.2
 40
0.4
 40
0.4
 40
0.4
 40
0.4
 40
0.6
 40
0.6
 40
0.6
 40
0.6
 40
1.0
 40
1.0
 40
1.0
 40
1.0
 10
200.6628
 20
-135.8792
 30
0.0
 10
200.6628
 20
-135.0892
 30
0.0
 10
201.3032
 20
-134.4488
 30
0.0
 10
202.0932
 20
-134.4488
 30
0.0
 10
202.0932
 20
-134.4488
 30
0.0
 10
202.8832
 20
-134.4488
 30
0.0
 10
203.5236
 20
-135.0892
 30
0.0
 10
203.5236
 20
-135.8792
 30
0.0
 10
203.5236
 20
-135.8792
 30
0.0
 10
203.5236
 20
-136.6692
 30
0.0
 10
202.8832
 20
-137.3096
 30
0.0
 10
202.0932
 20
-137.3096
 30
0.0
 10
202.0932
 20
-137.3096
 30
0.0
 10
201.3032
 20
-137.3096
 30
0.0
 10
200.6628
 20
-136.6692
 30
0.0
 10
200.6628
 20
-135.8792
 30
0.0
  0
SPLINE
  5
107
330
1F
100
AcDbEntity
  8
Layer 1
370
    15
100
AcDbSpline
210
0.0
220
0.0
230
1.0
 70
    11
 71
     3
 72
    20
 73
    16
 74
     0
 42
0.0000000001
 43
0.0000000001
 12
1.0
 22
0.0
 32
0.0
 13
1.0
 23
0.0
 33
0.0
 40
0.0
 40
0.0
 40
0.0
 40
0.0
 40
0.2
 40
0.2
 40
0.2
 40
0.2
 40
0.4
 40
0.4
 40
0.4
 40
0.4
 40
0.6
 40
0.6
 40
0.6
 40
0.6
 40
1.0
 40
1.0
 40
1.0
 40
1.0
 10
142.7091
 20
-135.8792
 30
0.0
 10
142.7091
 20
-135.1
 30
0.0
 10
143.3407
 20
-134.4683
 30
0.0
 10
144.1199
 20
-134.4683
 30
0.0
 10
144.1199
 20
-134.4683
 30
0.0
 10
144.8991
 20
-134.4683
 30
0.0
 10
145.5308
 20
-135.1
 30
0.0
 10
145.5308
 20
-135.8792
 30
0.0
 10
145.5308
 20
-135.8792
 30
0.0
 10
145.5308
 20
-136.6584
 30
0.0
 10
144.8991
 20
-137.2901
 30
0.0
 10
144.1199
 20
-137.2901
 30
0.0
 10
144.1199
 20
-137.2901
 30
0.0
 10
143.3407
 20
-137.2901
 30
0.0
 10
142.7091
 20
-136.6584
 30
0.0
 10
142.7091
 20
-135.8792
 30
0.0
  0
SPLINE
  5
108
330
1F
100
AcDbEntity
  8
Layer 1
370
    15
100
AcDbSpline
210
0.0
220
0.0
230
1.0
 70
    11
 71
     3
 72
    20
 73
    16
 74
     0
 42
0.0000000001
 43
0.0000000001
 12
1.0
 22
0.0
 32
0.0
 13
1.0
 23
0.0
 33
0.0
 40
0.0
 40
0.0
 40
0.0
 40
0.0
 40
0.2
 40
0.2
 40
0.2
 40
0.2
 40
0.4
 40
0.4
 40
0.4
 40
0.4
 40
0.6
 40
0.6
 40
0.6
 40
0.6
 40
1.0
 40
1.0
 40
1.0
 40
1.0
 10
84.7553
 20
-135.8792
 30
0.0
 10
84.7553
 20
-135.1108
 30
0.0
 10
85.3782
 20
-134.4879
 30
0.0
 10
86.1466
 20
-134.4879
 30
0.0
 10
86.1466
 20
-134.4879
 30
0.0
 10
86.915
 20
-134.4879
 30
0.0
 10
87.538
 20
-135.1108
 30
0.0
 10
87.538
 20
-135.8792
 30
0.0
 10
87.538
 20
-135.8792
 30
0.0
 10
87.538
 20
-136.6476
 30
0.0
 10
86.915
 20
-137.2705
 30
0.0
 10
86.1466
 20
-137.2705
 30
0.0
 10
86.1466
 20
-137.2705
 30
0.0
 10
85.3782
 20
-137.2705
 30
0.0
 10
84.7553
 20
-136.6476
 30
0.0
 10
84.7553
 20
-135.8792
 30
0.0
  0
SPLINE
  5
109
330
1F
100
AcDbEntity
  8
Layer 1
370
    15
100
AcDbSpline
210
0.0
220
0.0
230
1.0
 70
    11
 71
     3
 72
    20
 73
    16
 74
     0
 42
0.0000000001
 43
0.0000000001
 12
1.0
 22
0.0
 32
0.0
 13
1.0
 23
0.0
 33
0.0
 40
0.0
 40
0.0
 40
0.0
 40
0.0
 40
0.2
 40
0.2
 40
0.2
 40
0.2
 40
0.4
 40
0.4
 40
0.4
 40
0.4
 40
0.6
 40
0.6
 40
0.6
 40
0.6
 40
1.0
 40
1.0
 40
1.0
 40
1.0
 10
26.8015
 20
-135.8792
 30
0.0
 10
26.8015
 20
-135.1216
 30
0.0
 10
27.4157
 20
-134.5074
 30
0.0
 10
28.1733
 20
-134.5074
 30
0.0
 10
28.1733
 20
-134.5074
 30
0.0
 10
28.931
 20
-134.5074
 30
0.0
 10
29.5451
 20
-135.1216
 30
0.0
 10
29.5451
 20
-135.8792
 30
0.0
 10
29.5451
 20
-135.8792
 30
0.0
 10
29.5451
 20
-136.6368
 30
0.0
 10
28.931
 20
-137.251
 30
0.0
 10
28.1733
 20
-137.251
 30
0.0
 10
28.1733
 20
-137.251
 30
0.0
 10
27.4157
 20
-137.251
 30
0.0
 10
26.8016
 20
-136.6368
 30
0.0
 10
26.8015
 20
-135.8792
 30
0.0
  0
SPLINE
  5
10A
330
1F
100
AcDbEntity
  8
Layer 1
370
    15
100
AcDbSpline
210
0.0
220
0.0
230
1.0
 70
    11
 71
     3
 72
    20
 73
    16
 74
     0
 42
0.0000000001
 43
0.0000000001
 12
1.0
 22
0.0
 32
0.0
 13
1.0
 23
0.0
 33
0.0
 40
0.0
 40
0.0
 40
0.0
 40
0.0
 40
0.2
 40
0.2
 40
0.2
 40
0.2
 40
0.4
 40
0.4
 40
0.4
 40
0.4
 40
0.6
 40
0.6
 40
0.6
 40
0.6
 40
1.0
 40
1.0
 40
1.0
 40
1.0
 10
-31.1522
 20
-135.8792
 30
0.0
 10
-31.1522
 20
-135.1324
 30
0.0
 10
-30.5468
 20
-134.5269
 30
0.0
 10
-29.8
 20
-134.5269
 30
0.0
 10
-29.8
 20
-134.5269
 30
0.0
 10
-29.0531
 20
-134.5269
 30
0.0
 10
-28.4477
 20
-135.1324
 30
0.0
 10
-28.4477
 20
-135.8792
 30
0.0
 10
-28.4477
 20
-135.8792
 30
0.0
 10
-28.4477
 20
-136.626
 30
0.0
 10
-29.0531
 20
-137.2315
 30
0.0
 10
-29.7999
 20
-137.2315
 30
0.0
 10
-29.7999
 20
-137.2315
 30
0.0
 10
-30.5468
 20
-137.2315
 30
0.0
 10
-31.1522
 20
-136.626
 30
0.0
 10
-31.1522
 20
-135.8792
 30
0.0
  0
SPLINE
  5
10B
330
1F
100
AcDbEntity
  8
Layer 1
370
    15
100
AcDbSpline
210
0.0
220
0.0
230
1.0
 70
    11
 71
     3
 72
    20
 73
    16
 74
     0
 42
0.0000000001
 43
0.0000000001
 12
1.0
 22
0.0
 32
0.0
 13
1.0
 23
0.0
 33
0.0
 40
0.0
 40
0.0
 40
0.0
 40
0.0
 40
0.2
 40
0.2
 40
0.2
 40
0.2
 40
0.4
 40
0.4
 40
0.4
 40
0.4
 40
0.6
 40
0.6
 40
0.6
 40
0.6
 40
1.0
 40
1.0
 40
1.0
 40
1.0
 10
-89.106
 20
-135.8792
 30
0.0
 10
-89.106
 20
-135.1431
 30
0.0
 10
-88.5093
 20
-134.5464
 30
0.0
 10
-87.7732
 20
-134.5464
 30
0.0
 10
-87.7732
 20
-134.5464
 30
0.0
 10
-87.0372
 20
-134.5464
 30
0.0
 10
-86.4405
 20
-135.1431
 30
0.0
 10
-86.4405
 20
-135.8792
 30
0.0
 10
-86.4405
 20
-135.8792
 30
0.0
 10
-86.4405
 20
-136.6153
 30
0.0
 10
-87.0372
 20
-137.212
 30
0.0
 10
-87.7732
 20
-137.212
 30
0.0
 10
-87.7732
 20
-137.212
 30
0.0
 10
-88.5093
 20
-137.212
 30
0.0
 10
-89.106
 20
-136.6153
 30
0.0
 10
-89.106
 20
-135.8792
 30
0.0
  0
SPLINE
  5
10C
330
1F
100
AcDbEntity
  8
Layer 1
370
    15
100
AcDbSpline
210
0.0
220
0.0
230
1.0
 70
    11
 71
     3
 72
    20
 73
    16
 74
     0
 42
0.0000000001
 43
0.0000000001
 12
1.0
 22
0.0
 32
0.0
 13
1.0
 23
0.0
 33
0.0
 40
0.0
 40
0.0
 40
0.0
 40
0.0
 40
0.2
 40
0.2
 40
0.2
 40
0.2
 40
0.4
 40
0.4
 40
0.4
 40
0.4
 40
0.6
 40
0.6
 40
0.6
 40
0.6
 40
1.0
 40
1.0
 40
1.0
 40
1.0
 10
-175.9705
 20
-124.991
 30
0.0
 10
-175.9705
 20
-124.1902
 30
0.0
 10
-175.3213
 20
-123.541
 30
0.0
 10
-174.5205
 20
-123.541
 30
0.0
 10
-174.5205
 20
-123.541
 30
0.0
 10
-173.7197
 20
-123.541
 30
0.0
 10
-173.0705
 20
-124.1902
 30
0.0
 10
-173.0705
 20
-124.991
 30
0.0
 10
-173.0705
 20
-124.991
 30
0.0
 10
-173.0705
 20
-125.7918
 30
0.0
 10
-173.7197
 20
-126.441
 30
0.0
 10
-174.5205
 20
-126.441
 30
0.0
 10
-174.5205
 20
-126.441
 30
0.0
 10
-175.3213
 20
-126.441
 30
0.0
 10
-175.9705
 20
-125.7918
 30
0.0
 10
-175.9705
 20
-124.991
 30
0.0
  0
SPLINE
  5
10D
330
1F
100
AcDbEntity
  8
Layer 1
370
    15
100
AcDbSpline
210
0.0
220
0.0
230
1.0
 70
    11
 71
     3
 72
    20
 73
    16
 74
     0
 42
0.0000000001
 43
0.0000000001
 12
1.0
 22
0.0
 32
0.0
 13
1.0
 23
0.0
 33
0.0
 40
0.0
 40
0.0
 40
0.0
 40
0.0
 40
0.2
 40
0.2
 40
0.2
 40
0.2
 40
0.4
 40
0.4
 40
0.4
 40
0.4
 40
0.6
 40
0.6
 40
0.6
 40
0.6
 40
1.0
 40
1.0
 40
1.0
 40
1.0
 10
-103.8835
 20
-53.9549
 30
0.0
 10
-103.8835
 20
-53.154
 30
0.0
 10
-103.2343
 20
-52.5049
 30
0.0
 10
-102.4335
 20
-52.5049
 30
0.0
 10
-102.4335
 20
-52.5049
 30
0.0
 10
-101.6327
 20
-52.5049
 30
0.0
 10
-100.9835
 20
-53.154
 30
0.0
 10
-100.9835
 20
-53.9549
 30
0.0
 10
-100.9835
 20
-53.9549
 30
0.0
 10
-100.9835
 20
-54.7557
 30
0.0
 10
-101.6327
 20
-55.4049
 30
0.0
 10
-102.4335
 20
-55.4049
 30
0.0
 10
-102.4335
 20
-55.4049
 30
0.0
 10
-103.2343
 20
-55.4049
 30
0.0
 10
-103.8835
 20
-54.7557
 30
0.0
 10
-103.8835
 20
-53.9549
 30
0.0
  0
SPLINE
  5
10E
330
1F
100
AcDbEntity
  8
Layer 1
370
    15
100
AcDbSpline
210
0.0
220
0.0
230
1.0
 70
    11
 71
     3
 72
    20
 73
    16
 74
     0
 42
0.0000000001
 43
0.0000000001
 12
1.0
 22
0.0
 32
0.0
 13
1.0
 23
0.0
 33
0.0
 40
0.0
 40
0.0
 40
0.0
 40
0.0
 40
0.2
 40
0.2
 40
0.2
 40
0.2
 40
0.4
 40
0.4
 40
0.4
 40
0.4
 40
0.6
 40
0.6
 40
0.6
 40
0.6
 40
1.0
 40
1.0
 40
1.0
 40
1.0
 10
215.1165
 20
-53.8792
 30
0.0
 10
215.1165
 20
-53.0784
 30
0.0
 10
215.7657
 20
-52.4292
 30
0.0
 10
216.5665
 20
-52.4292
 30
0.0
 10
216.5665
 20
-52.4292
 30
0.0
 10
217.3673
 20
-52.4292
 30
0.0
 10
218.0165
 20
-53.0784
 30
0.0
 10
218.0165
 20
-53.8792
 30
0.0
 10
218.0165
 20
-53.8792
 30
0.0
 10
218.0165
 20
-54.68
 30
0.0
 10
217.3673
 20
-55.3292
 30
0.0
 10
216.5665
 20
-55.3292
 30
0.0
 10
216.5665
 20
-55.3292
 30
0.0
 10
215.7657
 20
-55.3292
 30
0.0
 10
215.1165
 20
-54.68
 30
0.0
 10
215.1165
 20
-53.8792
 30
0.0
  0
SPLINE
  5
10F
330
1F
100
AcDbEntity
  8
Layer 1
370
    15
100
AcDbSpline
210
0.0
220
0.0
230
1.0
 70
    11
 71
     3
 72
    20
 73
    16
 74
     0
 42
0.0000000001
 43
0.0000000001
 12
1.0
 22
0.0
 32
0.0
 13
1.0
 23
0.0
 33
0.0
 40
0.0
 40
0.0
 40
0.0
 40
0.0
 40
0.2
 40
0.2
 40
0.2
 40
0.2
 40
0.4
 40
0.4
 40
0.4
 40
0.4
 40
0.6
 40
0.6
 40
0.6
 40
0.6
 40
1.0
 40
1.0
 40
1.0
 40
1.0
 10
157.1165
 20
-53.8792
 30
0.0
 10
157.1165
 20
-53.0784
 30
0.0
 10
157.7657
 20
-52.4292
 30
0.0
 10
158.5665
 20
-52.4292
 30
0.0
 10
158.5665
 20
-52.4292
 30
0.0
 10
159.3673
 20
-52.4292
 30
0.0
 10
160.0165
 20
-53.0784
 30
0.0
 10
160.0165
 20
-53.8792
 30
0.0
 10
160.0165
 20
-53.8792
 30
0.0
 10
160.0165
 20
-54.68
 30
0.0
 10
159.3673
 20
-55.3292
 30
0.0
 10
158.5665
 20
-55.3292
 30
0.0
 10
158.5665
 20
-55.3292
 30
0.0
 10
157.7657
 20
-55.3292
 30
0.0
 10
157.1165
 20
-54.68
 30
0.0
 10
157.1165
 20
-53.8792
 30
0.0
  0
SPLINE
  5
110
330
1F
100
AcDbEntity
  8
Layer 1
370
    15
100
AcDbSpline
210
0.0
220
0.0
230
1.0
 70
    11
 71
     3
 72
    20
 73
    16
 74
     0
 42
0.0000000001
 43
0.0000000001
 12
1.0
 22
0.0
 32
0.0
 13
1.0
 23
0.0
 33
0.0
 40
0.0
 40
0.0
 40
0.0
 40
0.0
 40
0.2
 40
0.2
 40
0.2
 40
0.2
 40
0.4
 40
0.4
 40
0.4
 40
0.4
 40
0.6
 40
0.6
 40
0.6
 40
0.6
 40
1.0
 40
1.0
 40
1.0
 40
1.0
 10
99.1165
 20
-53.8792
 30
0.0
 10
99.1165
 20
-53.0784
 30
0.0
 10
99.7657
 20
-52.4292
 30
0.0
 10
100.5665
 20
-52.4292
 30
0.0
 10
100.5665
 20
-52.4292
 30
0.0
 10
101.3673
 20
-52.4292
 30
0.0
 10
102.0165
 20
-53.0784
 30
0.0
 10
102.0165
 20
-53.8792
 30
0.0
 10
102.0165
 20
-53.8792
 30
0.0
 10
102.0165
 20
-54.68
 30
0.0
 10
101.3673
 20
-55.3292
 30
0.0
 10
100.5665
 20
-55.3292
 30
0.0
 10
100.5665
 20
-55.3292
 30
0.0
 10
99.7657
 20
-55.3292
 30
0.0
 10
99.1165
 20
-54.68
 30
0.0
 10
99.1165
 20
-53.8792
 30
0.0
  0
SPLINE
  5
111
330
1F
100
AcDbEntity
  8
Layer 1
370
    15
100
AcDbSpline
210
0.0
220
0.0
230
1.0
 70
    11
 71
     3
 72
    20
 73
    16
 74
     0
 42
0.0000000001
 43
0.0000000001
 12
1.0
 22
0.0
 32
0.0
 13
1.0
 23
0.0
 33
0.0
 40
0.0
 40
0.0
 40
0.0
 40
0.0
 40
0.2
 40
0.2
 40
0.2
 40
0.2
 40
0.4
 40
0.4
 40
0.4
 40
0.4
 40
0.6
 40
0.6
 40
0.6
 40
0.6
 40
1.0
 40
1.0
 40
1.0
 40
1.0
 10
41.1165
 20
-53.8792
 30
0.0
 10
41.1165
 20
-53.0784
 30
0.0
 10
41.7657
 20
-52.4292
 30
0.0
 10
42.5665
 20
-52.4292
 30
0.0
 10
42.5665
 20
-52.4292
 30
0.0
 10
43.3673
 20
-52.4292
 30
0.0
 10
44.0165
 20
-53.0784
 30
0.0
 10
44.0165
 20
-53.8792
 30
0.0
 10
44.0165
 20
-53.8792
 30
0.0
 10
44.0165
 20
-54.68
 30
0.0
 10
43.3673
 20
-55.3292
 30
0.0
 10
42.5665
 20
-55.3292
 30
0.0
 10
42.5665
 20
-55.3292
 30
0.0
 10
41.7657
 20
-55.3292
 30
0.0
 10
41.1165
 20
-54.68
 30
0.0
 10
41.1165
 20
-53.8792
 30
0.0
  0
SPLINE
  5
112
330
1F
100
AcDbEntity
  8
Layer 1
370
    15
100
AcDbSpline
210
0.0
220
0.0
230
1.0
 70
    11
 71
     3
 72
    20
 73
    16
 74
     0
 42
0.0000000001
 43
0.0000000001
 12
1.0
 22
0.0
 32
0.0
 13
1.0
 23
0.0
 33
0.0
 40
0.0
 40
0.0
 40
0.0
 40
0.0
 40
0.2
 40
0.2
 40
0.2
 40
0.2
 40
0.4
 40
0.4
 40
0.4
 40
0.4
 40
0.6
 40
0.6
 40
0.6
 40
0.6
 40
1.0
 40
1.0
 40
1.0
 40
1.0
 10
-16.8835
 20
-53.8792
 30
0.0
 10
-16.8835
 20
-53.0784
 30
0.0
 10
-16.2343
 20
-52.4292
 30
0.0
 10
-15.4335
 20
-52.4292
 30
0.0
 10
-15.4335
 20
-52.4292
 30
0.0
 10
-14.6327
 20
-52.4292
 30
0.0
 10
-13.9835
 20
-53.0784
 30
0.0
 10
-13.9835
 20
-53.8792
 30
0.0
 10
-13.9835
 20
-53.8792
 30
0.0
 10
-13.9835
 20
-54.68
 30
0.0
 10
-14.6327
 20
-55.3292
 30
0.0
 10
-15.4335
 20
-55.3292
 30
0.0
 10
-15.4335
 20
-55.3292
 30
0.0
 10
-16.2343
 20
-55.3292
 30
0.0
 10
-16.8835
 20
-54.68
 30
0.0
 10
-16.8835
 20
-53.8792
 30
0.0
  0
SPLINE
  5
113
330
1F
100
AcDbEntity
  8
Layer 1
370
    15
100
AcDbSpline
210
0.0
220
0.0
230
1.0
 70
    11
 71
     3
 72
    20
 73
    16
 74
     0
 42
0.0000000001
 43
0.0000000001
 12
1.0
 22
0.0
 32
0.0
 13
1.0
 23
0.0
 33
0.0
 40
0.0
 40
0.0
 40
0.0
 40
0.0
 40
0.2
 40
0.2
 40
0.2
 40
0.2
 40
0.4
 40
0.4
 40
0.4
 40
0.4
 40
0.6
 40
0.6
 40
0.6
 40
0.6
 40
1.0
 40
1.0
 40
1.0
 40
1.0
 10
-74.8835
 20
-53.8792
 30
0.0
 10
-74.8835
 20
-53.0784
 30
0.0
 10
-74.2343
 20
-52.4292
 30
0.0
 10
-73.4335
 20
-52.4292
 30
0.0
 10
-73.4335
 20
-52.4292
 30
0.0
 10
-72.6327
 20
-52.4292
 30
0.0
 10
-71.9835
 20
-53.0784
 30
0.0
 10
-71.9835
 20
-53.8792
 30
0.0
 10
-71.9835
 20
-53.8792
 30
0.0
 10
-71.9835
 20
-54.68
 30
0.0
 10
-72.6327
 20
-55.3292
 30
0.0
 10
-73.4335
 20
-55.3292
 30
0.0
 10
-73.4335
 20
-55.3292
 30
0.0
 10
-74.2343
 20
-55.3292
 30
0.0
 10
-74.8835
 20
-54.68
 30
0.0
 10
-74.8835
 20
-53.8792
 30
0.0
  0
SPLINE
  5
114
330
1F
100
AcDbEntity
  8
Layer 1
370
    15
100
AcDbSpline
210
0.0
220
0.0
230
1.0
 70
    11
 71
     3
 72
    20
 73
    16
 74
     0
 42
0.0000000001
 43
0.0000000001
 12
1.0
 22
0.0
 32
0.0
 13
1.0
 23
0.0
 33
0.0
 40
0.0
 40
0.0
 40
0.0
 40
0.0
 40
0.2
 40
0.2
 40
0.2
 40
0.2
 40
0.4
 40
0.4
 40
0.4
 40
0.4
 40
0.6
 40
0.6
 40
0.6
 40
0.6
 40
1.0
 40
1.0
 40
1.0
 40
1.0
 10
-161.4725
 20
-62.5928
 30
0.0
 10
-161.4725
 20
-61.792
 30
0.0
 10
-160.8233
 20
-61.1428
 30
0.0
 10
-160.0225
 20
-61.1428
 30
0.0
 10
-160.0225
 20
-61.1428
 30
0.0
 10
-159.2217
 20
-61.1428
 30
0.0
 10
-158.5725
 20
-61.792
 30
0.0
 10
-158.5725
 20
-62.5928
 30
0.0
 10
-158.5725
 20
-62.5928
 30
0.0
 10
-158.5725
 20
-63.3936
 30
0.0
 10
-159.2217
 20
-64.0428
 30
0.0
 10
-160.0225
 20
-64.0428
 30
0.0
 10
-160.0225
 20
-64.0428
 30
0.0
 10
-160.8233
 20
-64.0428
 30
0.0
 10
-161.4725
 20
-63.3936
 30
0.0
 10
-161.4725
 20
-62.5928
 30
0.0
  0
SPLINE
  5
115
330
1F
100
AcDbEntity
  8
Layer 1
370
    15
100
AcDbSpline
210
0.0
220
0.0
230
1.0
 70
    11
 71
     3
 72
    20
 73
    16
 74
     0
 42
0.0000000001
 43
0.0000000001
 12
1.0
 22
0.0
 32
0.0
 13
1.0
 23
0.0
 33
0.0
 40
0.0
 40
0.0
 40
0.0
 40
0.0
 40
0.2
 40
0.2
 40
0.2
 40
0.2
 40
0.4
 40
0.4
 40
0.4
 40
0.4
 40
0.6
 40
0.6
 40
0.6
 40
0.6
 40
1.0
 40
1.0
 40
1.0
 40
1.0
 10
273.1165
 20
-53.8792
 30
0.0
 10
273.1165
 20
-53.0784
 30
0.0
 10
273.7657
 20
-52.4292
 30
0.0
 10
274.5665
 20
-52.4292
 30
0.0
 10
274.5665
 20
-52.4292
 30
0.0
 10
275.3673
 20
-52.4292
 30
0.0
 10
276.0165
 20
-53.0784
 30
0.0
 10
276.0165
 20
-53.8792
 30
0.0
 10
276.0165
 20
-53.8792
 30
0.0
 10
276.0165
 20
-54.68
 30
0.0
 10
275.3673
 20
-55.3292
 30
0.0
 10
274.5665
 20
-55.3292
 30
0.0
 10
274.5665
 20
-55.3292
 30
0.0
 10
273.7657
 20
-55.3292
 30
0.0
 10
273.1165
 20
-54.68
 30
0.0
 10
273.1165
 20
-53.8792
 30
0.0
  0
SPLINE
  5
116
330
1F
100
AcDbEntity
  8
Layer 1
370
    15
100
AcDbSpline
210
0.0
220
0.0
230
1.0
 70
     8
 71
     3
 72
    16
 73
    12
 74
     0
 42
0.0000000001
 43
0.0000000001
 12
1.0
 22
0.0
 32
0.0
 13
1.0
 23
0.0
 33
0.0
 40
0.0
 40
0.0
 40
0.0
 40
0.0
 40
0.25
 40
0.25
 40
0.25
 40
0.25
 40
0.5
 40
0.5
 40
0.5
 40
0.5
 40
1.0
 40
1.0
 40
1.0
 40
1.0
 10
-200.8784
 20
140.8309
 30
0.0
 10
-200.9086
 20
140.6188
 30
0.0
 10
-200.8233
 20
140.4065
 30
0.0
 10
-200.6547
 20
140.2742
 30
0.0
 10
-200.6547
 20
140.2742
 30
0.0
 10
-200.4861
 20
140.1419
 30
0.0
 10
-200.2595
 20
140.1096
 30
0.0
 10
-200.0607
 20
140.1895
 30
0.0
 10
-200.0607
 20
140.1895
 30
0.0
 10
-199.8618
 20
140.2695
 30
0.0
 10
-199.7206
 20
140.4495
 30
0.0
 10
-199.6904
 20
140.6616
 30
0.0
  0
SPLINE
  5
117
330
1F
100
AcDbEntity
  8
Layer 1
370
    15
100
AcDbSpline
210
0.0
220
0.0
230
1.0
 70
    24
 71
     3
 72
     8
 73
     4
 74
     0
 42
0.0000000001
 43
0.0000000001
 12
1.0
 22
0.0
 32
0.0
 13
1.0
 23
0.0
 33
0.0
 40
0.0
 40
0.0
 40
0.0
 40
0.0
 40
1.0
 40
1.0
 40
1.0
 40
1.0
 10
-200.8784
 20
140.8309
 30
0.0
 10
-200.8784
 20
140.8309
 30
0.0
 10
-200.6136
 20
142.6886
 30
0.0
 10
-200.6136
 20
142.6886
 30
0.0
  0
SPLINE
  5
118
330
1F
100
AcDbEntity
  8
Layer 1
370
    15
100
AcDbSpline
210
0.0
220
0.0
230
1.0
 70
    24
 71
     3
 72
     8
 73
     4
 74
     0
 42
0.0000000001
 43
0.0000000001
 12
1.0
 22
0.0
 32
0.0
 13
1.0
 23
0.0
 33
0.0
 40
0.0
 40
0.0
 40
0.0
 40
0.0
 40
1.0
 40
1.0
 40
1.0
 40
1.0
 10
-200.6136
 20
142.6886
 30
0.0
 10
-200.6136
 20
142.6886
 30
0.0
 10
-212.665
 20
141.7611
 30
0.0
 10
-212.665
 20
141.7611
 30
0.0
  0
SPLINE
  5
119
330
1F
100
AcDbEntity
  8
Layer 1
370
    15
100
AcDbSpline
210
0.0
220
0.0
230
1.0
 70
    24
 71
     3
 72
     8
 73
     4
 74
     0
 42
0.0000000001
 43
0.0000000001
 12
1.0
 22
0.0
 32
0.0
 13
1.0
 23
0.0
 33
0.0
 40
0.0
 40
0.0
 40
0.0
 40
0.0
 40
1.0
 40
1.0
 40
1.0
 40
1.0
 10
-212.665
 20
141.7611
 30
0.0
 10
-212.665
 20
141.7611
 30
0.0
 10
-212.9727
 20
139.6021
 30
0.0
 10
-212.9727
 20
139.6021
 30
0.0
  0
SPLINE
  5
11A
330
1F
100
AcDbEntity
  8
Layer 1
370
    15
100
AcDbSpline
210
0.0
220
0.0
230
1.0
 70
     8
 71
     3
 72
    16
 73
    12
 74
     0
 42
0.0000000001
 43
0.0000000001
 12
1.0
 22
0.0
 32
0.0
 13
1.0
 23
0.0
 33
0.0
 40
0.0
 40
0.0
 40
0.0
 40
0.0
 40
0.25
 40
0.25
 40
0.25
 40
0.25
 40
0.5
 40
0.5
 40
0.5
 40
0.5
 40
1.0
 40
1.0
 40
1.0
 40
1.0
 10
-214.1607
 20
139.7714
 30
0.0
 10
-214.191
 20
139.5592
 30
0.0
 10
-214.1057
 20
139.3469
 30
0.0
 10
-213.9371
 20
139.2146
 30
0.0
 10
-213.9371
 20
139.2146
 30
0.0
 10
-213.7684
 20
139.0824
 30
0.0
 10
-213.5419
 20
139.0501
 30
0.0
 10
-213.3431
 20
139.1299
 30
0.0
 10
-213.3431
 20
139.1299
 30
0.0
 10
-213.1442
 20
139.2099
 30
0.0
 10
-213.003
 20
139.3899
 30
0.0
 10
-212.9727
 20
139.6021
 30
0.0
  0
SPLINE
  5
11B
330
1F
100
AcDbEntity
  8
Layer 1
370
    15
100
AcDbSpline
210
0.0
220
0.0
230
1.0
 70
    24
 71
     3
 72
     8
 73
     4
 74
     0
 42
0.0000000001
 43
0.0000000001
 12
1.0
 22
0.0
 32
0.0
 13
1.0
 23
0.0
 33
0.0
 40
0.0
 40
0.0
 40
0.0
 40
0.0
 40
1.0
 40
1.0
 40
1.0
 40
1.0
 10
-214.1607
 20
139.7714
 30
0.0
 10
-214.1607
 20
139.7714
 30
0.0
 10
-213.8906
 20
141.6668
 30
0.0
 10
-213.8906
 20
141.6668
 30
0.0
  0
SPLINE
  5
11C
330
1F
100
AcDbEntity
  8
Layer 1
370
    15
100
AcDbSpline
210
0.0
220
0.0
230
1.0
 70
    24
 71
     3
 72
     8
 73
     4
 74
     0
 42
0.0000000001
 43
0.0000000001
 12
1.0
 22
0.0
 32
0.0
 13
1.0
 23
0.0
 33
0.0
 40
0.0
 40
0.0
 40
0.0
 40
0.0
 40
1.0
 40
1.0
 40
1.0
 40
1.0
 10
-213.8906
 20
141.6668
 30
0.0
 10
-213.8906
 20
141.6668
 30
0.0
 10
-225.942
 20
140.7393
 30
0.0
 10
-225.942
 20
140.7393
 30
0.0
  0
SPLINE
  5
11D
330
1F
100
AcDbEntity
  8
Layer 1
370
    15
100
AcDbSpline
210
0.0
220
0.0
230
1.0
 70
    24
 71
     3
 72
     8
 73
     4
 74
     0
 42
0.0000000001
 43
0.0000000001
 12
1.0
 22
0.0
 32
0.0
 13
1.0
 23
0.0
 33
0.0
 40
0.0
 40
0.0
 40
0.0
 40
0.0
 40
1.0
 40
1.0
 40
1.0
 40
1.0
 10
-225.942
 20
140.7393
 30
0.0
 10
-225.942
 20
140.7393
 30
0.0
 10
-226.2551
 20
138.5425
 30
0.0
 10
-226.2551
 20
138.5425
 30
0.0
  0
SPLINE
  5
11E
330
1F
100
AcDbEntity
  8
Layer 1
370
    15
100
AcDbSpline
210
0.0
220
0.0
230
1.0
 70
     8
 71
     3
 72
    16
 73
    12
 74
     0
 42
0.0000000001
 43
0.0000000001
 12
1.0
 22
0.0
 32
0.0
 13
1.0
 23
0.0
 33
0.0
 40
0.0
 40
0.0
 40
0.0
 40
0.0
 40
0.25
 40
0.25
 40
0.25
 40
0.25
 40
0.5
 40
0.5
 40
0.5
 40
0.5
 40
1.0
 40
1.0
 40
1.0
 40
1.0
 10
-227.4431
 20
138.7118
 30
0.0
 10
-227.4734
 20
138.4996
 30
0.0
 10
-227.3881
 20
138.2873
 30
0.0
 10
-227.2194
 20
138.1551
 30
0.0
 10
-227.2194
 20
138.1551
 30
0.0
 10
-227.0508
 20
138.0228
 30
0.0
 10
-226.8243
 20
137.9905
 30
0.0
 10
-226.6254
 20
138.0704
 30
0.0
 10
-226.6254
 20
138.0704
 30
0.0
 10
-226.4266
 20
138.1503
 30
0.0
 10
-226.2854
 20
138.3302
 30
0.0
 10
-226.2551
 20
138.5425
 30
0.0
  0
SPLINE
  5
11F
330
1F
100
AcDbEntity
  8
Layer 1
370
    15
100
AcDbSpline
210
0.0
220
0.0
230
1.0
 70
    24
 71
     3
 72
     8
 73
     4
 74
     0
 42
0.0000000001
 43
0.0000000001
 12
1.0
 22
0.0
 32
0.0
 13
1.0
 23
0.0
 33
0.0
 40
0.0
 40
0.0
 40
0.0
 40
0.0
 40
1.0
 40
1.0
 40
1.0
 40
1.0
 10
-227.4431
 20
138.7118
 30
0.0
 10
-227.4431
 20
138.7118
 30
0.0
 10
-227.1676
 20
140.6449
 30
0.0
 10
-227.1676
 20
140.6449
 30
0.0
  0
SPLINE
  5
120
330
1F
100
AcDbEntity
  8
Layer 1
370
    15
100
AcDbSpline
210
0.0
220
0.0
230
1.0
 70
    24
 71
     3
 72
     8
 73
     4
 74
     0
 42
0.0000000001
 43
0.0000000001
 12
1.0
 22
0.0
 32
0.0
 13
1.0
 23
0.0
 33
0.0
 40
0.0
 40
0.0
 40
0.0
 40
0.0
 40
1.0
 40
1.0
 40
1.0
 40
1.0
 10
-227.1676
 20
140.6449
 30
0.0
 10
-227.1676
 20
140.6449
 30
0.0
 10
-239.219
 20
139.7174
 30
0.0
 10
-239.219
 20
139.7174
 30
0.0
  0
SPLINE
  5
121
330
1F
100
AcDbEntity
  8
Layer 1
370
    15
100
AcDbSpline
210
0.0
220
0.0
230
1.0
 70
    24
 71
     3
 72
     8
 73
     4
 74
     0
 42
0.0000000001
 43
0.0000000001
 12
1.0
 22
0.0
 32
0.0
 13
1.0
 23
0.0
 33
0.0
 40
0.0
 40
0.0
 40
0.0
 40
0.0
 40
1.0
 40
1.0
 40
1.0
 40
1.0
 10
-239.219
 20
139.7174
 30
0.0
 10
-239.219
 20
139.7174
 30
0.0
 10
-239.5375
 20
137.4829
 30
0.0
 10
-239.5375
 20
137.4829
 30
0.0
  0
SPLINE
  5
122
330
1F
100
AcDbEntity
  8
Layer 1
370
    15
100
AcDbSpline
210
0.0
220
0.0
230
1.0
 70
     8
 71
     3
 72
    16
 73
    12
 74
     0
 42
0.0000000001
 43
0.0000000001
 12
1.0
 22
0.0
 32
0.0
 13
1.0
 23
0.0
 33
0.0
 40
0.0
 40
0.0
 40
0.0
 40
0.0
 40
0.25
 40
0.25
 40
0.25
 40
0.25
 40
0.5
 40
0.5
 40
0.5
 40
0.5
 40
1.0
 40
1.0
 40
1.0
 40
1.0
 10
-240.7255
 20
137.6522
 30
0.0
 10
-240.7557
 20
137.44
 30
0.0
 10
-240.6704
 20
137.2278
 30
0.0
 10
-240.5018
 20
137.0955
 30
0.0
 10
-240.5018
 20
137.0955
 30
0.0
 10
-240.3332
 20
136.9632
 30
0.0
 10
-240.1067
 20
136.9309
 30
0.0
 10
-239.9078
 20
137.0108
 30
0.0
 10
-239.9078
 20
137.0108
 30
0.0
 10
-239.7089
 20
137.0908
 30
0.0
 10
-239.5678
 20
137.2706
 30
0.0
 10
-239.5375
 20
137.4829
 30
0.0
  0
SPLINE
  5
123
330
1F
100
AcDbEntity
  8
Layer 1
370
    15
100
AcDbSpline
210
0.0
220
0.0
230
1.0
 70
    24
 71
     3
 72
     8
 73
     4
 74
     0
 42
0.0000000001
 43
0.0000000001
 12
1.0
 22
0.0
 32
0.0
 13
1.0
 23
0.0
 33
0.0
 40
0.0
 40
0.0
 40
0.0
 40
0.0
 40
1.0
 40
1.0
 40
1.0
 40
1.0
 10
-240.7255
 20
137.6522
 30
0.0
 10
-240.7255
 20
137.6522
 30
0.0
 10
-240.4446
 20
139.6231
 30
0.0
 10
-240.4446
 20
139.6231
 30
0.0
  0
SPLINE
  5
124
330
1F
100
AcDbEntity
  8
Layer 1
370
    15
100
AcDbSpline
210
0.0
220
0.0
230
1.0
 70
    24
 71
     3
 72
     8
 73
     4
 74
     0
 42
0.0000000001
 43
0.0000000001
 12
1.0
 22
0.0
 32
0.0
 13
1.0
 23
0.0
 33
0.0
 40
0.0
 40
0.0
 40
0.0
 40
0.0
 40
1.0
 40
1.0
 40
1.0
 40
1.0
 10
-240.4446
 20
139.6231
 30
0.0
 10
-240.4446
 20
139.6231
 30
0.0
 10
-252.496
 20
138.6956
 30
0.0
 10
-252.496
 20
138.6956
 30
0.0
  0
SPLINE
  5
125
330
1F
100
AcDbEntity
  8
Layer 1
370
    15
100
AcDbSpline
210
0.0
220
0.0
230
1.0
 70
    24
 71
     3
 72
     8
 73
     4
 74
     0
 42
0.0000000001
 43
0.0000000001
 12
1.0
 22
0.0
 32
0.0
 13
1.0
 23
0.0
 33
0.0
 40
0.0
 40
0.0
 40
0.0
 40
0.0
 40
1.0
 40
1.0
 40
1.0
 40
1.0
 10
-252.496
 20
138.6956
 30
0.0
 10
-252.496
 20
138.6956
 30
0.0
 10
-252.8199
 20
136.4233
 30
0.0
 10
-252.8199
 20
136.4233
 30
0.0
  0
SPLINE
  5
126
330
1F
100
AcDbEntity
  8
Layer 1
370
    15
100
AcDbSpline
210
0.0
220
0.0
230
1.0
 70
     8
 71
     3
 72
    16
 73
    12
 74
     0
 42
0.0000000001
 43
0.0000000001
 12
1.0
 22
0.0
 32
0.0
 13
1.0
 23
0.0
 33
0.0
 40
0.0
 40
0.0
 40
0.0
 40
0.0
 40
0.25
 40
0.25
 40
0.25
 40
0.25
 40
0.5
 40
0.5
 40
0.5
 40
0.5
 40
1.0
 40
1.0
 40
1.0
 40
1.0
 10
-254.0079
 20
136.5926
 30
0.0
 10
-254.0381
 20
136.3805
 30
0.0
 10
-253.9528
 20
136.1682
 30
0.0
 10
-253.7842
 20
136.0359
 30
0.0
 10
-253.7842
 20
136.0359
 30
0.0
 10
-253.6156
 20
135.9036
 30
0.0
 10
-253.3891
 20
135.8713
 30
0.0
 10
-253.1902
 20
135.9512
 30
0.0
 10
-253.1902
 20
135.9512
 30
0.0
 10
-252.9913
 20
136.0312
 30
0.0
 10
-252.8501
 20
136.2111
 30
0.0
 10
-252.8199
 20
136.4233
 30
0.0
  0
SPLINE
  5
127
330
1F
100
AcDbEntity
  8
Layer 1
370
    15
100
AcDbSpline
210
0.0
220
0.0
230
1.0
 70
    24
 71
     3
 72
     8
 73
     4
 74
     0
 42
0.0000000001
 43
0.0000000001
 12
1.0
 22
0.0
 32
0.0
 13
1.0
 23
0.0
 33
0.0
 40
0.0
 40
0.0
 40
0.0
 40
0.0
 40
1.0
 40
1.0
 40
1.0
 40
1.0
 10
-254.0079
 20
136.5926
 30
0.0
 10
-254.0079
 20
136.5926
 30
0.0
 10
-253.7216
 20
138.6013
 30
0.0
 10
-253.7216
 20
138.6013
 30
0.0
  0
SPLINE
  5
128
330
1F
100
AcDbEntity
  8
Layer 1
370
    15
100
AcDbSpline
210
0.0
220
0.0
230
1.0
 70
    24
 71
     3
 72
     8
 73
     4
 74
     0
 42
0.0000000001
 43
0.0000000001
 12
1.0
 22
0.0
 32
0.0
 13
1.0
 23
0.0
 33
0.0
 40
0.0
 40
0.0
 40
0.0
 40
0.0
 40
1.0
 40
1.0
 40
1.0
 40
1.0
 10
-253.7216
 20
138.6013
 30
0.0
 10
-253.7216
 20
138.6013
 30
0.0
 10
-265.773
 20
137.6738
 30
0.0
 10
-265.773
 20
137.6738
 30
0.0
  0
SPLINE
  5
129
330
1F
100
AcDbEntity
  8
Layer 1
370
    15
100
AcDbSpline
210
0.0
220
0.0
230
1.0
 70
    24
 71
     3
 72
     8
 73
     4
 74
     0
 42
0.0000000001
 43
0.0000000001
 12
1.0
 22
0.0
 32
0.0
 13
1.0
 23
0.0
 33
0.0
 40
0.0
 40
0.0
 40
0.0
 40
0.0
 40
1.0
 40
1.0
 40
1.0
 40
1.0
 10
-265.773
 20
137.6738
 30
0.0
 10
-265.773
 20
137.6738
 30
0.0
 10
-266.1023
 20
135.3637
 30
0.0
 10
-266.1023
 20
135.3637
 30
0.0
  0
SPLINE
  5
12A
330
1F
100
AcDbEntity
  8
Layer 1
370
    15
100
AcDbSpline
210
0.0
220
0.0
230
1.0
 70
     8
 71
     3
 72
    16
 73
    12
 74
     0
 42
0.0000000001
 43
0.0000000001
 12
1.0
 22
0.0
 32
0.0
 13
1.0
 23
0.0
 33
0.0
 40
0.0
 40
0.0
 40
0.0
 40
0.0
 40
0.25
 40
0.25
 40
0.25
 40
0.25
 40
0.5
 40
0.5
 40
0.5
 40
0.5
 40
1.0
 40
1.0
 40
1.0
 40
1.0
 10
-267.2903
 20
135.533
 30
0.0
 10
-267.3205
 20
135.3208
 30
0.0
 10
-267.2352
 20
135.1086
 30
0.0
 10
-267.0666
 20
134.9763
 30
0.0
 10
-267.0666
 20
134.9763
 30
0.0
 10
-266.898
 20
134.8441
 30
0.0
 10
-266.6714
 20
134.8118
 30
0.0
 10
-266.4726
 20
134.8916
 30
0.0
 10
-266.4726
 20
134.8916
 30
0.0
 10
-266.2737
 20
134.9716
 30
0.0
 10
-266.1325
 20
135.1515
 30
0.0
 10
-266.1023
 20
135.3637
 30
0.0
  0
SPLINE
  5
12B
330
1F
100
AcDbEntity
  8
Layer 1
370
    15
100
AcDbSpline
210
0.0
220
0.0
230
1.0
 70
    24
 71
     3
 72
     8
 73
     4
 74
     0
 42
0.0000000001
 43
0.0000000001
 12
1.0
 22
0.0
 32
0.0
 13
1.0
 23
0.0
 33
0.0
 40
0.0
 40
0.0
 40
0.0
 40
0.0
 40
1.0
 40
1.0
 40
1.0
 40
1.0
 10
-267.2903
 20
135.533
 30
0.0
 10
-267.2903
 20
135.533
 30
0.0
 10
-266.9986
 20
137.5794
 30
0.0
 10
-266.9986
 20
137.5794
 30
0.0
  0
SPLINE
  5
12C
330
1F
100
AcDbEntity
  8
Layer 1
370
    15
100
AcDbSpline
210
0.0
220
0.0
230
1.0
 70
    24
 71
     3
 72
     8
 73
     4
 74
     0
 42
0.0000000001
 43
0.0000000001
 12
1.0
 22
0.0
 32
0.0
 13
1.0
 23
0.0
 33
0.0
 40
0.0
 40
0.0
 40
0.0
 40
0.0
 40
1.0
 40
1.0
 40
1.0
 40
1.0
 10
-266.9986
 20
137.5794
 30
0.0
 10
-266.9986
 20
137.5794
 30
0.0
 10
-279.05
 20
136.652
 30
0.0
 10
-279.05
 20
136.652
 30
0.0
  0
SPLINE
  5
12D
330
1F
100
AcDbEntity
  8
Layer 1
370
    15
100
AcDbSpline
210
0.0
220
0.0
230
1.0
 70
    24
 71
     3
 72
     8
 73
     4
 74
     0
 42
0.0000000001
 43
0.0000000001
 12
1.0
 22
0.0
 32
0.0
 13
1.0
 23
0.0
 33
0.0
 40
0.0
 40
0.0
 40
0.0
 40
0.0
 40
1.0
 40
1.0
 40
1.0
 40
1.0
 10
-279.05
 20
136.652
 30
0.0
 10
-279.05
 20
136.652
 30
0.0
 10
-279.3846
 20
134.3042
 30
0.0
 10
-279.3846
 20
134.3042
 30
0.0
  0
SPLINE
  5
12E
330
1F
100
AcDbEntity
  8
Layer 1
370
    15
100
AcDbSpline
210
0.0
220
0.0
230
1.0
 70
     8
 71
     3
 72
    16
 73
    12
 74
     0
 42
0.0000000001
 43
0.0000000001
 12
1.0
 22
0.0
 32
0.0
 13
1.0
 23
0.0
 33
0.0
 40
0.0
 40
0.0
 40
0.0
 40
0.0
 40
0.25
 40
0.25
 40
0.25
 40
0.25
 40
0.5
 40
0.5
 40
0.5
 40
0.5
 40
1.0
 40
1.0
 40
1.0
 40
1.0
 10
-280.5726
 20
134.4735
 30
0.0
 10
-280.6029
 20
134.2612
 30
0.0
 10
-280.5176
 20
134.049
 30
0.0
 10
-280.349
 20
133.9168
 30
0.0
 10
-280.349
 20
133.9168
 30
0.0
 10
-280.1803
 20
133.7844
 30
0.0
 10
-279.9538
 20
133.7522
 30
0.0
 10
-279.755
 20
133.8321
 30
0.0
 10
-279.755
 20
133.8321
 30
0.0
 10
-279.5561
 20
133.9119
 30
0.0
 10
-279.4149
 20
134.0919
 30
0.0
 10
-279.3846
 20
134.3042
 30
0.0
  0
SPLINE
  5
12F
330
1F
100
AcDbEntity
  8
Layer 1
370
    15
100
AcDbSpline
210
0.0
220
0.0
230
1.0
 70
    24
 71
     3
 72
     8
 73
     4
 74
     0
 42
0.0000000001
 43
0.0000000001
 12
1.0
 22
0.0
 32
0.0
 13
1.0
 23
0.0
 33
0.0
 40
0.0
 40
0.0
 40
0.0
 40
0.0
 40
1.0
 40
1.0
 40
1.0
 40
1.0
 10
-280.5726
 20
134.4735
 30
0.0
 10
-280.5726
 20
134.4735
 30
0.0
 10
-280.2756
 20
136.5576
 30
0.0
 10
-280.2756
 20
136.5576
 30
0.0
  0
SPLINE
  5
130
330
1F
100
AcDbEntity
  8
Layer 1
370
    15
100
AcDbSpline
210
0.0
220
0.0
230
1.0
 70
    24
 71
     3
 72
     8
 73
     4
 74
     0
 42
0.0000000001
 43
0.0000000001
 12
1.0
 22
0.0
 32
0.0
 13
1.0
 23
0.0
 33
0.0
 40
0.0
 40
0.0
 40
0.0
 40
0.0
 40
1.0
 40
1.0
 40
1.0
 40
1.0
 10
-280.2756
 20
136.5576
 30
0.0
 10
-280.2756
 20
136.5576
 30
0.0
 10
-284.9566
 20
136.1974
 30
0.0
 10
-284.9566
 20
136.1974
 30
0.0
  0
SPLINE
  5
131
330
1F
100
AcDbEntity
  8
Layer 1
370
    15
100
AcDbSpline
210
0.0
220
0.0
230
1.0
 70
     8
 71
     3
 72
     8
 73
     4
 74
     0
 42
0.0000000001
 43
0.0000000001
 12
1.0
 22
0.0
 32
0.0
 13
1.0
 23
0.0
 33
0.0
 40
0.0
 40
0.0
 40
0.0
 40
0.0
 40
1.0
 40
1.0
 40
1.0
 40
1.0
 10
-284.9566
 20
136.1974
 30
0.0
 10
-285.8914
 20
136.1255
 30
0.0
 10
-286.6508
 20
135.4137
 30
0.0
 10
-286.7831
 20
134.4855
 30
0.0
  0
SPLINE
  5
132
330
1F
100
AcDbEntity
  8
Layer 1
370
    15
100
AcDbSpline
210
0.0
220
0.0
230
1.0
 70
    24
 71
     3
 72
     8
 73
     4
 74
     0
 42
0.0000000001
 43
0.0000000001
 12
1.0
 22
0.0
 32
0.0
 13
1.0
 23
0.0
 33
0.0
 40
0.0
 40
0.0
 40
0.0
 40
0.0
 40
1.0
 40
1.0
 40
1.0
 40
1.0
 10
-286.7831
 20
134.4855
 30
0.0
 10
-286.7831
 20
134.4855
 30
0.0
 10
-287.4697
 20
129.6678
 30
0.0
 10
-287.4697
 20
129.6678
 30
0.0
  0
SPLINE
  5
133
330
1F
100
AcDbEntity
  8
Layer 1
370
    15
100
AcDbSpline
210
0.0
220
0.0
230
1.0
 70
    24
 71
     3
 72
     8
 73
     4
 74
     0
 42
0.0000000001
 43
0.0000000001
 12
1.0
 22
0.0
 32
0.0
 13
1.0
 23
0.0
 33
0.0
 40
0.0
 40
0.0
 40
0.0
 40
0.0
 40
1.0
 40
1.0
 40
1.0
 40
1.0
 10
-287.4697
 20
129.6678
 30
0.0
 10
-287.4697
 20
129.6678
 30
0.0
 10
-284.4997
 20
129.2445
 30
0.0
 10
-284.4997
 20
129.2445
 30
0.0
  0
SPLINE
  5
134
330
1F
100
AcDbEntity
  8
Layer 1
370
    15
100
AcDbSpline
210
0.0
220
0.0
230
1.0
 70
    24
 71
     3
 72
     8
 73
     4
 74
     0
 42
0.0000000001
 43
0.0000000001
 12
1.0
 22
0.0
 32
0.0
 13
1.0
 23
0.0
 33
0.0
 40
0.0
 40
0.0
 40
0.0
 40
0.0
 40
1.0
 40
1.0
 40
1.0
 40
1.0
 10
-284.4997
 20
129.2445
 30
0.0
 10
-284.4997
 20
129.2445
 30
0.0
 10
-287.9566
 20
104.9896
 30
0.0
 10
-287.9566
 20
104.9896
 30
0.0
  0
SPLINE
  5
135
330
1F
100
AcDbEntity
  8
Layer 1
370
    15
100
AcDbSpline
210
0.0
220
0.0
230
1.0
 70
    24
 71
     3
 72
     8
 73
     4
 74
     0
 42
0.0000000001
 43
0.0000000001
 12
1.0
 22
0.0
 32
0.0
 13
1.0
 23
0.0
 33
0.0
 40
0.0
 40
0.0
 40
0.0
 40
0.0
 40
1.0
 40
1.0
 40
1.0
 40
1.0
 10
-287.9566
 20
104.9896
 30
0.0
 10
-287.9566
 20
104.9896
 30
0.0
 10
-284.4916
 20
104.4957
 30
0.0
 10
-284.4916
 20
104.4957
 30
0.0
  0
SPLINE
  5
136
330
1F
100
AcDbEntity
  8
Layer 1
370
    15
100
AcDbSpline
210
0.0
220
0.0
230
1.0
 70
    24
 71
     3
 72
     8
 73
     4
 74
     0
 42
0.0000000001
 43
0.0000000001
 12
1.0
 22
0.0
 32
0.0
 13
1.0
 23
0.0
 33
0.0
 40
0.0
 40
0.0
 40
0.0
 40
0.0
 40
1.0
 40
1.0
 40
1.0
 40
1.0
 10
-284.4916
 20
104.4957
 30
0.0
 10
-284.4916
 20
104.4957
 30
0.0
 10
-284.9149
 20
101.5258
 30
0.0
 10
-284.9149
 20
101.5258
 30
0.0
  0
SPLINE
  5
137
330
1F
100
AcDbEntity
  8
Layer 1
370
    15
100
AcDbSpline
210
0.0
220
0.0
230
1.0
 70
    24
 71
     3
 72
     8
 73
     4
 74
     0
 42
0.0000000001
 43
0.0000000001
 12
1.0
 22
0.0
 32
0.0
 13
1.0
 23
0.0
 33
0.0
 40
0.0
 40
0.0
 40
0.0
 40
0.0
 40
1.0
 40
1.0
 40
1.0
 40
1.0
 10
-284.9149
 20
101.5258
 30
0.0
 10
-284.9149
 20
101.5258
 30
0.0
 10
-288.3799
 20
102.0196
 30
0.0
 10
-288.3799
 20
102.0196
 30
0.0
  0
SPLINE
  5
138
330
1F
100
AcDbEntity
  8
Layer 1
370
    15
100
AcDbSpline
210
0.0
220
0.0
230
1.0
 70
    24
 71
     3
 72
     8
 73
     4
 74
     0
 42
0.0000000001
 43
0.0000000001
 12
1.0
 22
0.0
 32
0.0
 13
1.0
 23
0.0
 33
0.0
 40
0.0
 40
0.0
 40
0.0
 40
0.0
 40
1.0
 40
1.0
 40
1.0
 40
1.0
 10
-288.3799
 20
102.0196
 30
0.0
 10
-288.3799
 20
102.0196
 30
0.0
 10
-291.8367
 20
77.7647
 30
0.0
 10
-291.8367
 20
77.7647
 30
0.0
  0
SPLINE
  5
139
330
1F
100
AcDbEntity
  8
Layer 1
370
    15
100
AcDbSpline
210
0.0
220
0.0
230
1.0
 70
    24
 71
     3
 72
     8
 73
     4
 74
     0
 42
0.0000000001
 43
0.0000000001
 12
1.0
 22
0.0
 32
0.0
 13
1.0
 23
0.0
 33
0.0
 40
0.0
 40
0.0
 40
0.0
 40
0.0
 40
1.0
 40
1.0
 40
1.0
 40
1.0
 10
-291.8367
 20
77.7647
 30
0.0
 10
-291.8367
 20
77.7647
 30
0.0
 10
-294.8067
 20
78.188
 30
0.0
 10
-294.8067
 20
78.188
 30
0.0
  0
SPLINE
  5
13A
330
1F
100
AcDbEntity
  8
Layer 1
370
    15
100
AcDbSpline
210
0.0
220
0.0
230
1.0
 70
    24
 71
     3
 72
     8
 73
     4
 74
     0
 42
0.0000000001
 43
0.0000000001
 12
1.0
 22
0.0
 32
0.0
 13
1.0
 23
0.0
 33
0.0
 40
0.0
 40
0.0
 40
0.0
 40
0.0
 40
1.0
 40
1.0
 40
1.0
 40
1.0
 10
-294.8067
 20
78.188
 30
0.0
 10
-294.8067
 20
78.188
 30
0.0
 10
-295.4933
 20
73.3703
 30
0.0
 10
-295.4933
 20
73.3703
 30
0.0
  0
SPLINE
  5
13B
330
1F
100
AcDbEntity
  8
Layer 1
370
    15
100
AcDbSpline
210
0.0
220
0.0
230
1.0
 70
     8
 71
     3
 72
     8
 73
     4
 74
     0
 42
0.0000000001
 43
0.0000000001
 12
1.0
 22
0.0
 32
0.0
 13
1.0
 23
0.0
 33
0.0
 40
0.0
 40
0.0
 40
0.0
 40
0.0
 40
1.0
 40
1.0
 40
1.0
 40
1.0
 10
-295.4933
 20
73.3703
 30
0.0
 10
-295.6256
 20
72.442
 30
0.0
 10
-295.0953
 20
71.5465
 30
0.0
 10
-294.2178
 20
71.2162
 30
0.0
  0
SPLINE
  5
13C
330
1F
100
AcDbEntity
  8
Layer 1
370
    15
100
AcDbSpline
210
0.0
220
0.0
230
1.0
 70
    24
 71
     3
 72
     8
 73
     4
 74
     0
 42
0.0000000001
 43
0.0000000001
 12
1.0
 22
0.0
 32
0.0
 13
1.0
 23
0.0
 33
0.0
 40
0.0
 40
0.0
 40
0.0
 40
0.0
 40
1.0
 40
1.0
 40
1.0
 40
1.0
 10
-294.2178
 20
71.2162
 30
0.0
 10
-294.2178
 20
71.2162
 30
0.0
 10
-283.5924
 20
67.2174
 30
0.0
 10
-283.5924
 20
67.2174
 30
0.0
  0
SPLINE
  5
13D
330
1F
100
AcDbEntity
  8
Layer 1
370
    15
100
AcDbSpline
210
0.0
220
0.0
230
1.0
 70
    24
 71
     3
 72
     8
 73
     4
 74
     0
 42
0.0000000001
 43
0.0000000001
 12
1.0
 22
0.0
 32
0.0
 13
1.0
 23
0.0
 33
0.0
 40
0.0
 40
0.0
 40
0.0
 40
0.0
 40
1.0
 40
1.0
 40
1.0
 40
1.0
 10
-283.5924
 20
67.2174
 30
0.0
 10
-283.5924
 20
67.2174
 30
0.0
 10
-283.2981
 20
69.2828
 30
0.0
 10
-283.2981
 20
69.2828
 30
0.0
  0
SPLINE
  5
13E
330
1F
100
AcDbEntity
  8
Layer 1
370
    15
100
AcDbSpline
210
0.0
220
0.0
230
1.0
 70
     8
 71
     3
 72
    12
 73
     8
 74
     0
 42
0.0000000001
 43
0.0000000001
 12
1.0
 22
0.0
 32
0.0
 13
1.0
 23
0.0
 33
0.0
 40
0.0
 40
0.0
 40
0.0
 40
0.0
 40
0.3333333333333333
 40
0.3333333333333333
 40
0.3333333333333333
 40
0.3333333333333333
 40
1.0
 40
1.0
 40
1.0
 40
1.0
 10
-282.1101
 20
69.1135
 30
0.0
 10
-282.0633
 20
69.4415
 30
0.0
 10
-282.2913
 20
69.7453
 30
0.0
 10
-282.6194
 20
69.7921
 30
0.0
 10
-282.6194
 20
69.7921
 30
0.0
 10
-282.9475
 20
69.8389
 30
0.0
 10
-283.2513
 20
69.6109
 30
0.0
 10
-283.2981
 20
69.2828
 30
0.0
  0
SPLINE
  5
13F
330
1F
100
AcDbEntity
  8
Layer 1
370
    15
100
AcDbSpline
210
0.0
220
0.0
230
1.0
 70
    24
 71
     3
 72
     8
 73
     4
 74
     0
 42
0.0000000001
 43
0.0000000001
 12
1.0
 22
0.0
 32
0.0
 13
1.0
 23
0.0
 33
0.0
 40
0.0
 40
0.0
 40
0.0
 40
0.0
 40
1.0
 40
1.0
 40
1.0
 40
1.0
 10
-282.1101
 20
69.1135
 30
0.0
 10
-282.1101
 20
69.1135
 30
0.0
 10
-282.442
 20
66.7845
 30
0.0
 10
-282.442
 20
66.7845
 30
0.0
  0
SPLINE
  5
140
330
1F
100
AcDbEntity
  8
Layer 1
370
    15
100
AcDbSpline
210
0.0
220
0.0
230
1.0
 70
    24
 71
     3
 72
     8
 73
     4
 74
     0
 42
0.0000000001
 43
0.0000000001
 12
1.0
 22
0.0
 32
0.0
 13
1.0
 23
0.0
 33
0.0
 40
0.0
 40
0.0
 40
0.0
 40
0.0
 40
1.0
 40
1.0
 40
1.0
 40
1.0
 10
-282.442
 20
66.7845
 30
0.0
 10
-282.442
 20
66.7845
 30
0.0
 10
-271.1295
 20
62.5271
 30
0.0
 10
-271.1295
 20
62.5271
 30
0.0
  0
SPLINE
  5
141
330
1F
100
AcDbEntity
  8
Layer 1
370
    15
100
AcDbSpline
210
0.0
220
0.0
230
1.0
 70
    24
 71
     3
 72
     8
 73
     4
 74
     0
 42
0.0000000001
 43
0.0000000001
 12
1.0
 22
0.0
 32
0.0
 13
1.0
 23
0.0
 33
0.0
 40
0.0
 40
0.0
 40
0.0
 40
0.0
 40
1.0
 40
1.0
 40
1.0
 40
1.0
 10
-271.1295
 20
62.5271
 30
0.0
 10
-271.1295
 20
62.5271
 30
0.0
 10
-270.8406
 20
64.5547
 30
0.0
 10
-270.8406
 20
64.5547
 30
0.0
  0
SPLINE
  5
142
330
1F
100
AcDbEntity
  8
Layer 1
370
    15
100
AcDbSpline
210
0.0
220
0.0
230
1.0
 70
     8
 71
     3
 72
    12
 73
     8
 74
     0
 42
0.0000000001
 43
0.0000000001
 12
1.0
 22
0.0
 32
0.0
 13
1.0
 23
0.0
 33
0.0
 40
0.0
 40
0.0
 40
0.0
 40
0.0
 40
0.3333333333333333
 40
0.3333333333333333
 40
0.3333333333333333
 40
0.3333333333333333
 40
1.0
 40
1.0
 40
1.0
 40
1.0
 10
-269.6526
 20
64.3853
 30
0.0
 10
-269.6058
 20
64.7134
 30
0.0
 10
-269.8338
 20
65.0172
 30
0.0
 10
-270.1619
 20
65.064
 30
0.0
 10
-270.1619
 20
65.064
 30
0.0
 10
-270.49
 20
65.1108
 30
0.0
 10
-270.7938
 20
64.8827
 30
0.0
 10
-270.8406
 20
64.5547
 30
0.0
  0
SPLINE
  5
143
330
1F
100
AcDbEntity
  8
Layer 1
370
    15
100
AcDbSpline
210
0.0
220
0.0
230
1.0
 70
    24
 71
     3
 72
     8
 73
     4
 74
     0
 42
0.0000000001
 43
0.0000000001
 12
1.0
 22
0.0
 32
0.0
 13
1.0
 23
0.0
 33
0.0
 40
0.0
 40
0.0
 40
0.0
 40
0.0
 40
1.0
 40
1.0
 40
1.0
 40
1.0
 10
-269.6526
 20
64.3853
 30
0.0
 10
-269.6526
 20
64.3853
 30
0.0
 10
-269.9791
 20
62.0942
 30
0.0
 10
-269.9791
 20
62.0942
 30
0.0
  0
SPLINE
  5
144
330
1F
100
AcDbEntity
  8
Layer 1
370
    15
100
AcDbSpline
210
0.0
220
0.0
230
1.0
 70
    24
 71
     3
 72
     8
 73
     4
 74
     0
 42
0.0000000001
 43
0.0000000001
 12
1.0
 22
0.0
 32
0.0
 13
1.0
 23
0.0
 33
0.0
 40
0.0
 40
0.0
 40
0.0
 40
0.0
 40
1.0
 40
1.0
 40
1.0
 40
1.0
 10
-269.9791
 20
62.0942
 30
0.0
 10
-269.9791
 20
62.0942
 30
0.0
 10
-258.6666
 20
57.8369
 30
0.0
 10
-258.6666
 20
57.8369
 30
0.0
  0
SPLINE
  5
145
330
1F
100
AcDbEntity
  8
Layer 1
370
    15
100
AcDbSpline
210
0.0
220
0.0
230
1.0
 70
    24
 71
     3
 72
     8
 73
     4
 74
     0
 42
0.0000000001
 43
0.0000000001
 12
1.0
 22
0.0
 32
0.0
 13
1.0
 23
0.0
 33
0.0
 40
0.0
 40
0.0
 40
0.0
 40
0.0
 40
1.0
 40
1.0
 40
1.0
 40
1.0
 10
-258.6666
 20
57.8369
 30
0.0
 10
-258.6666
 20
57.8369
 30
0.0
 10
-258.3831
 20
59.8266
 30
0.0
 10
-258.3831
 20
59.8266
 30
0.0
  0
SPLINE
  5
146
330
1F
100
AcDbEntity
  8
Layer 1
370
    15
100
AcDbSpline
210
0.0
220
0.0
230
1.0
 70
     8
 71
     3
 72
    12
 73
     8
 74
     0
 42
0.0000000001
 43
0.0000000001
 12
1.0
 22
0.0
 32
0.0
 13
1.0
 23
0.0
 33
0.0
 40
0.0
 40
0.0
 40
0.0
 40
0.0
 40
0.3333333333333333
 40
0.3333333333333333
 40
0.3333333333333333
 40
0.3333333333333333
 40
1.0
 40
1.0
 40
1.0
 40
1.0
 10
-257.1951
 20
59.6572
 30
0.0
 10
-257.1483
 20
59.9853
 30
0.0
 10
-257.3763
 20
60.2891
 30
0.0
 10
-257.7044
 20
60.3359
 30
0.0
 10
-257.7044
 20
60.3359
 30
0.0
 10
-258.0325
 20
60.3826
 30
0.0
 10
-258.3363
 20
60.1546
 30
0.0
 10
-258.3831
 20
59.8266
 30
0.0
  0
SPLINE
  5
147
330
1F
100
AcDbEntity
  8
Layer 1
370
    15
100
AcDbSpline
210
0.0
220
0.0
230
1.0
 70
    24
 71
     3
 72
     8
 73
     4
 74
     0
 42
0.0000000001
 43
0.0000000001
 12
1.0
 22
0.0
 32
0.0
 13
1.0
 23
0.0
 33
0.0
 40
0.0
 40
0.0
 40
0.0
 40
0.0
 40
1.0
 40
1.0
 40
1.0
 40
1.0
 10
-257.1951
 20
59.6572
 30
0.0
 10
-257.1951
 20
59.6572
 30
0.0
 10
-257.5162
 20
57.4038
 30
0.0
 10
-257.5162
 20
57.4038
 30
0.0
  0
SPLINE
  5
148
330
1F
100
AcDbEntity
  8
Layer 1
370
    15
100
AcDbSpline
210
0.0
220
0.0
230
1.0
 70
    24
 71
     3
 72
     8
 73
     4
 74
     0
 42
0.0000000001
 43
0.0000000001
 12
1.0
 22
0.0
 32
0.0
 13
1.0
 23
0.0
 33
0.0
 40
0.0
 40
0.0
 40
0.0
 40
0.0
 40
1.0
 40
1.0
 40
1.0
 40
1.0
 10
-257.5162
 20
57.4038
 30
0.0
 10
-257.5162
 20
57.4038
 30
0.0
 10
-246.2037
 20
53.1465
 30
0.0
 10
-246.2037
 20
53.1465
 30
0.0
  0
SPLINE
  5
149
330
1F
100
AcDbEntity
  8
Layer 1
370
    15
100
AcDbSpline
210
0.0
220
0.0
230
1.0
 70
    24
 71
     3
 72
     8
 73
     4
 74
     0
 42
0.0000000001
 43
0.0000000001
 12
1.0
 22
0.0
 32
0.0
 13
1.0
 23
0.0
 33
0.0
 40
0.0
 40
0.0
 40
0.0
 40
0.0
 40
1.0
 40
1.0
 40
1.0
 40
1.0
 10
-246.2037
 20
53.1465
 30
0.0
 10
-246.2037
 20
53.1465
 30
0.0
 10
-245.9255
 20
55.0985
 30
0.0
 10
-245.9255
 20
55.0985
 30
0.0
  0
SPLINE
  5
14A
330
1F
100
AcDbEntity
  8
Layer 1
370
    15
100
AcDbSpline
210
0.0
220
0.0
230
1.0
 70
     8
 71
     3
 72
    12
 73
     8
 74
     0
 42
0.0000000001
 43
0.0000000001
 12
1.0
 22
0.0
 32
0.0
 13
1.0
 23
0.0
 33
0.0
 40
0.0
 40
0.0
 40
0.0
 40
0.0
 40
0.3333333333333333
 40
0.3333333333333333
 40
0.3333333333333333
 40
0.3333333333333333
 40
1.0
 40
1.0
 40
1.0
 40
1.0
 10
-244.7375
 20
54.9292
 30
0.0
 10
-244.6908
 20
55.2572
 30
0.0
 10
-244.9188
 20
55.5611
 30
0.0
 10
-245.2469
 20
55.6079
 30
0.0
 10
-245.2469
 20
55.6079
 30
0.0
 10
-245.575
 20
55.6546
 30
0.0
 10
-245.8788
 20
55.4265
 30
0.0
 10
-245.9255
 20
55.0985
 30
0.0
  0
SPLINE
  5
14B
330
1F
100
AcDbEntity
  8
Layer 1
370
    15
100
AcDbSpline
210
0.0
220
0.0
230
1.0
 70
    24
 71
     3
 72
     8
 73
     4
 74
     0
 42
0.0000000001
 43
0.0000000001
 12
1.0
 22
0.0
 32
0.0
 13
1.0
 23
0.0
 33
0.0
 40
0.0
 40
0.0
 40
0.0
 40
0.0
 40
1.0
 40
1.0
 40
1.0
 40
1.0
 10
-244.7375
 20
54.9292
 30
0.0
 10
-244.7375
 20
54.9292
 30
0.0
 10
-245.0533
 20
52.7135
 30
0.0
 10
-245.0533
 20
52.7135
 30
0.0
  0
SPLINE
  5
14C
330
1F
100
AcDbEntity
  8
Layer 1
370
    15
100
AcDbSpline
210
0.0
220
0.0
230
1.0
 70
    24
 71
     3
 72
     8
 73
     4
 74
     0
 42
0.0000000001
 43
0.0000000001
 12
1.0
 22
0.0
 32
0.0
 13
1.0
 23
0.0
 33
0.0
 40
0.0
 40
0.0
 40
0.0
 40
0.0
 40
1.0
 40
1.0
 40
1.0
 40
1.0
 10
-245.0533
 20
52.7135
 30
0.0
 10
-245.0533
 20
52.7135
 30
0.0
 10
-233.7408
 20
48.4562
 30
0.0
 10
-233.7408
 20
48.4562
 30
0.0
  0
SPLINE
  5
14D
330
1F
100
AcDbEntity
  8
Layer 1
370
    15
100
AcDbSpline
210
0.0
220
0.0
230
1.0
 70
    24
 71
     3
 72
     8
 73
     4
 74
     0
 42
0.0000000001
 43
0.0000000001
 12
1.0
 22
0.0
 32
0.0
 13
1.0
 23
0.0
 33
0.0
 40
0.0
 40
0.0
 40
0.0
 40
0.0
 40
1.0
 40
1.0
 40
1.0
 40
1.0
 10
-233.7408
 20
48.4562
 30
0.0
 10
-233.7408
 20
48.4562
 30
0.0
 10
-233.468
 20
50.3704
 30
0.0
 10
-233.468
 20
50.3704
 30
0.0
  0
SPLINE
  5
14E
330
1F
100
AcDbEntity
  8
Layer 1
370
    15
100
AcDbSpline
210
0.0
220
0.0
230
1.0
 70
     8
 71
     3
 72
    12
 73
     8
 74
     0
 42
0.0000000001
 43
0.0000000001
 12
1.0
 22
0.0
 32
0.0
 13
1.0
 23
0.0
 33
0.0
 40
0.0
 40
0.0
 40
0.0
 40
0.0
 40
0.3333333333333333
 40
0.3333333333333333
 40
0.3333333333333333
 40
0.3333333333333333
 40
1.0
 40
1.0
 40
1.0
 40
1.0
 10
-232.28
 20
50.2011
 30
0.0
 10
-232.2333
 20
50.5292
 30
0.0
 10
-232.4613
 20
50.833
 30
0.0
 10
-232.7894
 20
50.8798
 30
0.0
 10
-232.7894
 20
50.8798
 30
0.0
 10
-233.1175
 20
50.9265
 30
0.0
 10
-233.4213
 20
50.6985
 30
0.0
 10
-233.468
 20
50.3704
 30
0.0
  0
SPLINE
  5
14F
330
1F
100
AcDbEntity
  8
Layer 1
370
    15
100
AcDbSpline
210
0.0
220
0.0
230
1.0
 70
    24
 71
     3
 72
     8
 73
     4
 74
     0
 42
0.0000000001
 43
0.0000000001
 12
1.0
 22
0.0
 32
0.0
 13
1.0
 23
0.0
 33
0.0
 40
0.0
 40
0.0
 40
0.0
 40
0.0
 40
1.0
 40
1.0
 40
1.0
 40
1.0
 10
-232.28
 20
50.2011
 30
0.0
 10
-232.28
 20
50.2011
 30
0.0
 10
-232.5904
 20
48.0232
 30
0.0
 10
-232.5904
 20
48.0232
 30
0.0
  0
SPLINE
  5
150
330
1F
100
AcDbEntity
  8
Layer 1
370
    15
100
AcDbSpline
210
0.0
220
0.0
230
1.0
 70
    24
 71
     3
 72
     8
 73
     4
 74
     0
 42
0.0000000001
 43
0.0000000001
 12
1.0
 22
0.0
 32
0.0
 13
1.0
 23
0.0
 33
0.0
 40
0.0
 40
0.0
 40
0.0
 40
0.0
 40
1.0
 40
1.0
 40
1.0
 40
1.0
 10
-232.5904
 20
48.0232
 30
0.0
 10
-232.5904
 20
48.0232
 30
0.0
 10
-221.2779
 20
43.7659
 30
0.0
 10
-221.2779
 20
43.7659
 30
0.0
  0
SPLINE
  5
151
330
1F
100
AcDbEntity
  8
Layer 1
370
    15
100
AcDbSpline
210
0.0
220
0.0
230
1.0
 70
    24
 71
     3
 72
     8
 73
     4
 74
     0
 42
0.0000000001
 43
0.0000000001
 12
1.0
 22
0.0
 32
0.0
 13
1.0
 23
0.0
 33
0.0
 40
0.0
 40
0.0
 40
0.0
 40
0.0
 40
1.0
 40
1.0
 40
1.0
 40
1.0
 10
-221.2779
 20
43.7659
 30
0.0
 10
-221.2779
 20
43.7659
 30
0.0
 10
-221.0105
 20
45.6423
 30
0.0
 10
-221.0105
 20
45.6423
 30
0.0
  0
SPLINE
  5
152
330
1F
100
AcDbEntity
  8
Layer 1
370
    15
100
AcDbSpline
210
0.0
220
0.0
230
1.0
 70
     8
 71
     3
 72
    12
 73
     8
 74
     0
 42
0.0000000001
 43
0.0000000001
 12
1.0
 22
0.0
 32
0.0
 13
1.0
 23
0.0
 33
0.0
 40
0.0
 40
0.0
 40
0.0
 40
0.0
 40
0.3333333333333333
 40
0.3333333333333333
 40
0.3333333333333333
 40
0.3333333333333333
 40
1.0
 40
1.0
 40
1.0
 40
1.0
 10
-219.8225
 20
45.473
 30
0.0
 10
-219.7758
 20
45.8011
 30
0.0
 10
-220.0038
 20
46.1049
 30
0.0
 10
-220.3319
 20
46.1517
 30
0.0
 10
-220.3319
 20
46.1517
 30
0.0
 10
-220.6599
 20
46.1984
 30
0.0
 10
-220.9638
 20
45.9704
 30
0.0
 10
-221.0105
 20
45.6423
 30
0.0
  0
SPLINE
  5
153
330
1F
100
AcDbEntity
  8
Layer 1
370
    15
100
AcDbSpline
210
0.0
220
0.0
230
1.0
 70
    24
 71
     3
 72
     8
 73
     4
 74
     0
 42
0.0000000001
 43
0.0000000001
 12
1.0
 22
0.0
 32
0.0
 13
1.0
 23
0.0
 33
0.0
 40
0.0
 40
0.0
 40
0.0
 40
0.0
 40
1.0
 40
1.0
 40
1.0
 40
1.0
 10
-219.8225
 20
45.473
 30
0.0
 10
-219.8225
 20
45.473
 30
0.0
 10
-220.1275
 20
43.3328
 30
0.0
 10
-220.1275
 20
43.3328
 30
0.0
  0
SPLINE
  5
154
330
1F
100
AcDbEntity
  8
Layer 1
370
    15
100
AcDbSpline
210
0.0
220
0.0
230
1.0
 70
    24
 71
     3
 72
     8
 73
     4
 74
     0
 42
0.0000000001
 43
0.0000000001
 12
1.0
 22
0.0
 32
0.0
 13
1.0
 23
0.0
 33
0.0
 40
0.0
 40
0.0
 40
0.0
 40
0.0
 40
1.0
 40
1.0
 40
1.0
 40
1.0
 10
-220.1275
 20
43.3328
 30
0.0
 10
-220.1275
 20
43.3328
 30
0.0
 10
-211.9711
 20
40.2633
 30
0.0
 10
-211.9711
 20
40.2633
 30
0.0
  0
SPLINE
  5
155
330
1F
100
AcDbEntity
  8
Layer 1
370
    15
100
AcDbSpline
210
0.0
220
0.0
230
1.0
 70
     8
 71
     3
 72
     8
 73
     4
 74
     0
 42
0.0000000001
 43
0.0000000001
 12
1.0
 22
0.0
 32
0.0
 13
1.0
 23
0.0
 33
0.0
 40
0.0
 40
0.0
 40
0.0
 40
0.0
 40
1.0
 40
1.0
 40
1.0
 40
1.0
 10
-211.9711
 20
40.2633
 30
0.0
 10
-211.562
 20
40.1093
 30
0.0
 10
-211.1372
 20
40.0005
 30
0.0
 10
-210.7044
 20
39.9388
 30
0.0
  0
SPLINE
  5
156
330
1F
100
AcDbEntity
  8
Layer 1
370
    15
100
AcDbSpline
210
0.0
220
0.0
230
1.0
 70
    24
 71
     3
 72
     8
 73
     4
 74
     0
 42
0.0000000001
 43
0.0000000001
 12
1.0
 22
0.0
 32
0.0
 13
1.0
 23
0.0
 33
0.0
 40
0.0
 40
0.0
 40
0.0
 40
0.0
 40
1.0
 40
1.0
 40
1.0
 40
1.0
 10
-210.7044
 20
39.9388
 30
0.0
 10
-210.7044
 20
39.9388
 30
0.0
 10
-206.4056
 20
39.3261
 30
0.0
 10
-206.4056
 20
39.3261
 30
0.0
  0
SPLINE
  5
157
330
1F
100
AcDbEntity
  8
Layer 1
370
    15
100
AcDbSpline
210
0.0
220
0.0
230
1.0
 70
    24
 71
     3
 72
     8
 73
     4
 74
     0
 42
0.0000000001
 43
0.0000000001
 12
1.0
 22
0.0
 32
0.0
 13
1.0
 23
0.0
 33
0.0
 40
0.0
 40
0.0
 40
0.0
 40
0.0
 40
1.0
 40
1.0
 40
1.0
 40
1.0
 10
-206.4056
 20
39.3261
 30
0.0
 10
-206.4056
 20
39.3261
 30
0.0
 10
-204.8217
 20
50.4391
 30
0.0
 10
-204.8217
 20
50.4391
 30
0.0
  0
SPLINE
  5
158
330
1F
100
AcDbEntity
  8
Layer 1
370
    15
100
AcDbSpline
210
0.0
220
0.0
230
1.0
 70
    24
 71
     3
 72
     8
 73
     4
 74
     0
 42
0.0000000001
 43
0.0000000001
 12
1.0
 22
0.0
 32
0.0
 13
1.0
 23
0.0
 33
0.0
 40
0.0
 40
0.0
 40
0.0
 40
0.0
 40
1.0
 40
1.0
 40
1.0
 40
1.0
 10
-204.8217
 20
50.4391
 30
0.0
 10
-204.8217
 20
50.4391
 30
0.0
 10
-213.4728
 20
51.6721
 30
0.0
 10
-213.4728
 20
51.6721
 30
0.0
  0
SPLINE
  5
159
330
1F
100
AcDbEntity
  8
Layer 1
370
    15
100
AcDbSpline
210
0.0
220
0.0
230
1.0
 70
     8
 71
     3
 72
     8
 73
     4
 74
     0
 42
0.0000000001
 43
0.0000000001
 12
1.0
 22
0.0
 32
0.0
 13
1.0
 23
0.0
 33
0.0
 40
0.0
 40
0.0
 40
0.0
 40
0.0
 40
1.0
 40
1.0
 40
1.0
 40
1.0
 10
-215.0122
 20
52.0501
 30
0.0
 10
-214.5128
 20
51.8735
 30
0.0
 10
-213.9972
 20
51.7468
 30
0.0
 10
-213.4728
 20
51.6721
 30
0.0
  0
SPLINE
  5
15A
330
1F
100
AcDbEntity
  8
Layer 1
370
    15
100
AcDbSpline
210
0.0
220
0.0
230
1.0
 70
    24
 71
     3
 72
     8
 73
     4
 74
     0
 42
0.0000000001
 43
0.0000000001
 12
1.0
 22
0.0
 32
0.0
 13
1.0
 23
0.0
 33
0.0
 40
0.0
 40
0.0
 40
0.0
 40
0.0
 40
1.0
 40
1.0
 40
1.0
 40
1.0
 10
-215.0122
 20
52.0501
 30
0.0
 10
-215.0122
 20
52.0501
 30
0.0
 10
-282.5907
 20
75.9576
 30
0.0
 10
-282.5907
 20
75.9576
 30
0.0
  0
SPLINE
  5
15B
330
1F
100
AcDbEntity
  8
Layer 1
370
    15
100
AcDbSpline
210
0.0
220
0.0
230
1.0
 70
     8
 71
     3
 72
     8
 73
     4
 74
     0
 42
0.0000000001
 43
0.0000000001
 12
1.0
 22
0.0
 32
0.0
 13
1.0
 23
0.0
 33
0.0
 40
0.0
 40
0.0
 40
0.0
 40
0.0
 40
1.0
 40
1.0
 40
1.0
 40
1.0
 10
-284.5601
 20
79.2091
 30
0.0
 10
-284.7617
 20
77.7946
 30
0.0
 10
-283.9377
 20
76.4342
 30
0.0
 10
-282.5907
 20
75.9576
 30
0.0
  0
SPLINE
  5
15C
330
1F
100
AcDbEntity
  8
Layer 1
370
    15
100
AcDbSpline
210
0.0
220
0.0
230
1.0
 70
    24
 71
     3
 72
     8
 73
     4
 74
     0
 42
0.0000000001
 43
0.0000000001
 12
1.0
 22
0.0
 32
0.0
 13
1.0
 23
0.0
 33
0.0
 40
0.0
 40
0.0
 40
0.0
 40
0.0
 40
1.0
 40
1.0
 40
1.0
 40
1.0
 10
-284.5601
 20
79.2091
 30
0.0
 10
-284.5601
 20
79.2091
 30
0.0
 10
-277.9164
 20
125.8247
 30
0.0
 10
-277.9164
 20
125.8247
 30
0.0
  0
SPLINE
  5
15D
330
1F
100
AcDbEntity
  8
Layer 1
370
    15
100
AcDbSpline
210
0.0
220
0.0
230
1.0
 70
     8
 71
     3
 72
     8
 73
     4
 74
     0
 42
0.0000000001
 43
0.0000000001
 12
1.0
 22
0.0
 32
0.0
 13
1.0
 23
0.0
 33
0.0
 40
0.0
 40
0.0
 40
0.0
 40
0.0
 40
1.0
 40
1.0
 40
1.0
 40
1.0
 10
-275.117
 20
128.3965
 30
0.0
 10
-276.5435
 20
128.3153
 30
0.0
 10
-277.7148
 20
127.2392
 30
0.0
 10
-277.9164
 20
125.8247
 30
0.0
  0
SPLINE
  5
15E
330
1F
100
AcDbEntity
  8
Layer 1
370
    15
100
AcDbSpline
210
0.0
220
0.0
230
1.0
 70
    24
 71
     3
 72
     8
 73
     4
 74
     0
 42
0.0000000001
 43
0.0000000001
 12
1.0
 22
0.0
 32
0.0
 13
1.0
 23
0.0
 33
0.0
 40
0.0
 40
0.0
 40
0.0
 40
0.0
 40
1.0
 40
1.0
 40
1.0
 40
1.0
 10
-275.117
 20
128.3965
 30
0.0
 10
-275.117
 20
128.3965
 30
0.0
 10
-203.5502
 20
132.4728
 30
0.0
 10
-203.5502
 20
132.4728
 30
0.0
  0
SPLINE
  5
15F
330
1F
100
AcDbEntity
  8
Layer 1
370
    15
100
AcDbSpline
210
0.0
220
0.0
230
1.0
 70
     8
 71
     3
 72
     8
 73
     4
 74
     0
 42
0.0000000001
 43
0.0000000001
 12
1.0
 22
0.0
 32
0.0
 13
1.0
 23
0.0
 33
0.0
 40
0.0
 40
0.0
 40
0.0
 40
0.0
 40
1.0
 40
1.0
 40
1.0
 40
1.0
 10
-201.9665
 20
132.4057
 30
0.0
 10
-202.4909
 20
132.4804
 30
0.0
 10
-203.0214
 20
132.5029
 30
0.0
 10
-203.5502
 20
132.4728
 30
0.0
  0
SPLINE
  5
160
330
1F
100
AcDbEntity
  8
Layer 1
370
    15
100
AcDbSpline
210
0.0
220
0.0
230
1.0
 70
    24
 71
     3
 72
     8
 73
     4
 74
     0
 42
0.0000000001
 43
0.0000000001
 12
1.0
 22
0.0
 32
0.0
 13
1.0
 23
0.0
 33
0.0
 40
0.0
 40
0.0
 40
0.0
 40
0.0
 40
1.0
 40
1.0
 40
1.0
 40
1.0
 10
-201.9665
 20
132.4057
 30
0.0
 10
-201.9665
 20
132.4057
 30
0.0
 10
-193.3154
 20
131.1727
 30
0.0
 10
-193.3154
 20
131.1727
 30
0.0
  0
SPLINE
  5
161
330
1F
100
AcDbEntity
  8
Layer 1
370
    15
100
AcDbSpline
210
0.0
220
0.0
230
1.0
 70
    24
 71
     3
 72
     8
 73
     4
 74
     0
 42
0.0000000001
 43
0.0000000001
 12
1.0
 22
0.0
 32
0.0
 13
1.0
 23
0.0
 33
0.0
 40
0.0
 40
0.0
 40
0.0
 40
0.0
 40
1.0
 40
1.0
 40
1.0
 40
1.0
 10
-193.3154
 20
131.1727
 30
0.0
 10
-193.3154
 20
131.1727
 30
0.0
 10
-191.7316
 20
142.2857
 30
0.0
 10
-191.7316
 20
142.2857
 30
0.0
  0
SPLINE
  5
162
330
1F
100
AcDbEntity
  8
Layer 1
370
    15
100
AcDbSpline
210
0.0
220
0.0
230
1.0
 70
    24
 71
     3
 72
     8
 73
     4
 74
     0
 42
0.0000000001
 43
0.0000000001
 12
1.0
 22
0.0
 32
0.0
 13
1.0
 23
0.0
 33
0.0
 40
0.0
 40
0.0
 40
0.0
 40
0.0
 40
1.0
 40
1.0
 40
1.0
 40
1.0
 10
-191.7316
 20
142.2857
 30
0.0
 10
-191.7316
 20
142.2857
 30
0.0
 10
-196.0303
 20
142.8984
 30
0.0
 10
-196.0303
 20
142.8984
 30
0.0
  0
SPLINE
  5
163
330
1F
100
AcDbEntity
  8
Layer 1
370
    15
100
AcDbSpline
210
0.0
220
0.0
230
1.0
 70
     8
 71
     3
 72
     8
 73
     4
 74
     0
 42
0.0000000001
 43
0.0000000001
 12
1.0
 22
0.0
 32
0.0
 13
1.0
 23
0.0
 33
0.0
 40
0.0
 40
0.0
 40
0.0
 40
0.0
 40
1.0
 40
1.0
 40
1.0
 40
1.0
 10
-196.0303
 20
142.8984
 30
0.0
 10
-196.4632
 20
142.9601
 30
0.0
 10
-196.9015
 20
142.9742
 30
0.0
 10
-197.3374
 20
142.9407
 30
0.0
  0
SPLINE
  5
164
330
1F
100
AcDbEntity
  8
Layer 1
370
    15
100
AcDbSpline
210
0.0
220
0.0
230
1.0
 70
    24
 71
     3
 72
     8
 73
     4
 74
     0
 42
0.0000000001
 43
0.0000000001
 12
1.0
 22
0.0
 32
0.0
 13
1.0
 23
0.0
 33
0.0
 40
0.0
 40
0.0
 40
0.0
 40
0.0
 40
1.0
 40
1.0
 40
1.0
 40
1.0
 10
-197.3374
 20
142.9407
 30
0.0
 10
-197.3374
 20
142.9407
 30
0.0
 10
-199.388
 20
142.7829
 30
0.0
 10
-199.388
 20
142.7829
 30
0.0
  0
SPLINE
  5
165
330
1F
100
AcDbEntity
  8
Layer 1
370
    15
100
AcDbSpline
210
0.0
220
0.0
230
1.0
 70
    24
 71
     3
 72
     8
 73
     4
 74
     0
 42
0.0000000001
 43
0.0000000001
 12
1.0
 22
0.0
 32
0.0
 13
1.0
 23
0.0
 33
0.0
 40
0.0
 40
0.0
 40
0.0
 40
0.0
 40
1.0
 40
1.0
 40
1.0
 40
1.0
 10
-199.388
 20
142.7829
 30
0.0
 10
-199.388
 20
142.7829
 30
0.0
 10
-199.6904
 20
140.6616
 30
0.0
 10
-199.6904
 20
140.6616
 30
0.0
  0
SPLINE
  5
166
330
1F
100
AcDbEntity
  8
Layer 1
370
    15
100
AcDbSpline
210
0.0
220
0.0
230
1.0
 70
     8
 71
     3
 72
    16
 73
    12
 74
     0
 42
0.0000000001
 43
0.0000000001
 12
1.0
 22
0.0
 32
0.0
 13
1.0
 23
0.0
 33
0.0
 40
0.0
 40
0.0
 40
0.0
 40
0.0
 40
0.25
 40
0.25
 40
0.25
 40
0.25
 40
0.5
 40
0.5
 40
0.5
 40
0.5
 40
1.0
 40
1.0
 40
1.0
 40
1.0
 10
-200.8784
 20
-140.6464
 30
0.0
 10
-200.9086
 20
-140.4343
 30
0.0
 10
-200.8233
 20
-140.222
 30
0.0
 10
-200.6547
 20
-140.0897
 30
0.0
 10
-200.6547
 20
-140.0897
 30
0.0
 10
-200.4861
 20
-139.9574
 30
0.0
 10
-200.2595
 20
-139.9251
 30
0.0
 10
-200.0607
 20
-140.005
 30
0.0
 10
-200.0607
 20
-140.005
 30
0.0
 10
-199.8618
 20
-140.085
 30
0.0
 10
-199.7206
 20
-140.265
 30
0.0
 10
-199.6904
 20
-140.4771
 30
0.0
  0
SPLINE
  5
167
330
1F
100
AcDbEntity
  8
Layer 1
370
    15
100
AcDbSpline
210
0.0
220
0.0
230
1.0
 70
    24
 71
     3
 72
     8
 73
     4
 74
     0
 42
0.0000000001
 43
0.0000000001
 12
1.0
 22
0.0
 32
0.0
 13
1.0
 23
0.0
 33
0.0
 40
0.0
 40
0.0
 40
0.0
 40
0.0
 40
1.0
 40
1.0
 40
1.0
 40
1.0
 10
-200.8784
 20
-140.6464
 30
0.0
 10
-200.8784
 20
-140.6464
 30
0.0
 10
-200.6136
 20
-142.5041
 30
0.0
 10
-200.6136
 20
-142.5041
 30
0.0
  0
SPLINE
  5
168
330
1F
100
AcDbEntity
  8
Layer 1
370
    15
100
AcDbSpline
210
0.0
220
0.0
230
1.0
 70
    24
 71
     3
 72
     8
 73
     4
 74
     0
 42
0.0000000001
 43
0.0000000001
 12
1.0
 22
0.0
 32
0.0
 13
1.0
 23
0.0
 33
0.0
 40
0.0
 40
0.0
 40
0.0
 40
0.0
 40
1.0
 40
1.0
 40
1.0
 40
1.0
 10
-200.6136
 20
-142.5041
 30
0.0
 10
-200.6136
 20
-142.5041
 30
0.0
 10
-212.665
 20
-141.5766
 30
0.0
 10
-212.665
 20
-141.5766
 30
0.0
  0
SPLINE
  5
169
330
1F
100
AcDbEntity
  8
Layer 1
370
    15
100
AcDbSpline
210
0.0
220
0.0
230
1.0
 70
    24
 71
     3
 72
     8
 73
     4
 74
     0
 42
0.0000000001
 43
0.0000000001
 12
1.0
 22
0.0
 32
0.0
 13
1.0
 23
0.0
 33
0.0
 40
0.0
 40
0.0
 40
0.0
 40
0.0
 40
1.0
 40
1.0
 40
1.0
 40
1.0
 10
-212.665
 20
-141.5766
 30
0.0
 10
-212.665
 20
-141.5766
 30
0.0
 10
-212.9727
 20
-139.4176
 30
0.0
 10
-212.9727
 20
-139.4176
 30
0.0
  0
SPLINE
  5
16A
330
1F
100
AcDbEntity
  8
Layer 1
370
    15
100
AcDbSpline
210
0.0
220
0.0
230
1.0
 70
     8
 71
     3
 72
    16
 73
    12
 74
     0
 42
0.0000000001
 43
0.0000000001
 12
1.0
 22
0.0
 32
0.0
 13
1.0
 23
0.0
 33
0.0
 40
0.0
 40
0.0
 40
0.0
 40
0.0
 40
0.25
 40
0.25
 40
0.25
 40
0.25
 40
0.5
 40
0.5
 40
0.5
 40
0.5
 40
1.0
 40
1.0
 40
1.0
 40
1.0
 10
-214.1607
 20
-139.5869
 30
0.0
 10
-214.191
 20
-139.3747
 30
0.0
 10
-214.1057
 20
-139.1624
 30
0.0
 10
-213.9371
 20
-139.0301
 30
0.0
 10
-213.9371
 20
-139.0301
 30
0.0
 10
-213.7684
 20
-138.8979
 30
0.0
 10
-213.5419
 20
-138.8656
 30
0.0
 10
-213.3431
 20
-138.9454
 30
0.0
 10
-213.3431
 20
-138.9454
 30
0.0
 10
-213.1442
 20
-139.0254
 30
0.0
 10
-213.003
 20
-139.2054
 30
0.0
 10
-212.9727
 20
-139.4176
 30
0.0
  0
SPLINE
  5
16B
330
1F
100
AcDbEntity
  8
Layer 1
370
    15
100
AcDbSpline
210
0.0
220
0.0
230
1.0
 70
    24
 71
     3
 72
     8
 73
     4
 74
     0
 42
0.0000000001
 43
0.0000000001
 12
1.0
 22
0.0
 32
0.0
 13
1.0
 23
0.0
 33
0.0
 40
0.0
 40
0.0
 40
0.0
 40
0.0
 40
1.0
 40
1.0
 40
1.0
 40
1.0
 10
-214.1607
 20
-139.5869
 30
0.0
 10
-214.1607
 20
-139.5869
 30
0.0
 10
-213.8906
 20
-141.4823
 30
0.0
 10
-213.8906
 20
-141.4823
 30
0.0
  0
SPLINE
  5
16C
330
1F
100
AcDbEntity
  8
Layer 1
370
    15
100
AcDbSpline
210
0.0
220
0.0
230
1.0
 70
    24
 71
     3
 72
     8
 73
     4
 74
     0
 42
0.0000000001
 43
0.0000000001
 12
1.0
 22
0.0
 32
0.0
 13
1.0
 23
0.0
 33
0.0
 40
0.0
 40
0.0
 40
0.0
 40
0.0
 40
1.0
 40
1.0
 40
1.0
 40
1.0
 10
-213.8906
 20
-141.4823
 30
0.0
 10
-213.8906
 20
-141.4823
 30
0.0
 10
-225.942
 20
-140.5548
 30
0.0
 10
-225.942
 20
-140.5548
 30
0.0
  0
SPLINE
  5
16D
330
1F
100
AcDbEntity
  8
Layer 1
370
    15
100
AcDbSpline
210
0.0
220
0.0
230
1.0
 70
    24
 71
     3
 72
     8
 73
     4
 74
     0
 42
0.0000000001
 43
0.0000000001
 12
1.0
 22
0.0
 32
0.0
 13
1.0
 23
0.0
 33
0.0
 40
0.0
 40
0.0
 40
0.0
 40
0.0
 40
1.0
 40
1.0
 40
1.0
 40
1.0
 10
-225.942
 20
-140.5548
 30
0.0
 10
-225.942
 20
-140.5548
 30
0.0
 10
-226.2551
 20
-138.358
 30
0.0
 10
-226.2551
 20
-138.358
 30
0.0
  0
SPLINE
  5
16E
330
1F
100
AcDbEntity
  8
Layer 1
370
    15
100
AcDbSpline
210
0.0
220
0.0
230
1.0
 70
     8
 71
     3
 72
    16
 73
    12
 74
     0
 42
0.0000000001
 43
0.0000000001
 12
1.0
 22
0.0
 32
0.0
 13
1.0
 23
0.0
 33
0.0
 40
0.0
 40
0.0
 40
0.0
 40
0.0
 40
0.25
 40
0.25
 40
0.25
 40
0.25
 40
0.5
 40
0.5
 40
0.5
 40
0.5
 40
1.0
 40
1.0
 40
1.0
 40
1.0
 10
-227.4431
 20
-138.5273
 30
0.0
 10
-227.4734
 20
-138.3151
 30
0.0
 10
-227.3881
 20
-138.1028
 30
0.0
 10
-227.2194
 20
-137.9706
 30
0.0
 10
-227.2194
 20
-137.9706
 30
0.0
 10
-227.0508
 20
-137.8383
 30
0.0
 10
-226.8243
 20
-137.806
 30
0.0
 10
-226.6254
 20
-137.8859
 30
0.0
 10
-226.6254
 20
-137.8859
 30
0.0
 10
-226.4266
 20
-137.9658
 30
0.0
 10
-226.2854
 20
-138.1457
 30
0.0
 10
-226.2551
 20
-138.358
 30
0.0
  0
SPLINE
  5
16F
330
1F
100
AcDbEntity
  8
Layer 1
370
    15
100
AcDbSpline
210
0.0
220
0.0
230
1.0
 70
    24
 71
     3
 72
     8
 73
     4
 74
     0
 42
0.0000000001
 43
0.0000000001
 12
1.0
 22
0.0
 32
0.0
 13
1.0
 23
0.0
 33
0.0
 40
0.0
 40
0.0
 40
0.0
 40
0.0
 40
1.0
 40
1.0
 40
1.0
 40
1.0
 10
-227.4431
 20
-138.5273
 30
0.0
 10
-227.4431
 20
-138.5273
 30
0.0
 10
-227.1676
 20
-140.4604
 30
0.0
 10
-227.1676
 20
-140.4604
 30
0.0
  0
SPLINE
  5
170
330
1F
100
AcDbEntity
  8
Layer 1
370
    15
100
AcDbSpline
210
0.0
220
0.0
230
1.0
 70
    24
 71
     3
 72
     8
 73
     4
 74
     0
 42
0.0000000001
 43
0.0000000001
 12
1.0
 22
0.0
 32
0.0
 13
1.0
 23
0.0
 33
0.0
 40
0.0
 40
0.0
 40
0.0
 40
0.0
 40
1.0
 40
1.0
 40
1.0
 40
1.0
 10
-227.1676
 20
-140.4604
 30
0.0
 10
-227.1676
 20
-140.4604
 30
0.0
 10
-239.219
 20
-139.5329
 30
0.0
 10
-239.219
 20
-139.5329
 30
0.0
  0
SPLINE
  5
171
330
1F
100
AcDbEntity
  8
Layer 1
370
    15
100
AcDbSpline
210
0.0
220
0.0
230
1.0
 70
    24
 71
     3
 72
     8
 73
     4
 74
     0
 42
0.0000000001
 43
0.0000000001
 12
1.0
 22
0.0
 32
0.0
 13
1.0
 23
0.0
 33
0.0
 40
0.0
 40
0.0
 40
0.0
 40
0.0
 40
1.0
 40
1.0
 40
1.0
 40
1.0
 10
-239.219
 20
-139.5329
 30
0.0
 10
-239.219
 20
-139.5329
 30
0.0
 10
-239.5375
 20
-137.2984
 30
0.0
 10
-239.5375
 20
-137.2984
 30
0.0
  0
SPLINE
  5
172
330
1F
100
AcDbEntity
  8
Layer 1
370
    15
100
AcDbSpline
210
0.0
220
0.0
230
1.0
 70
     8
 71
     3
 72
    16
 73
    12
 74
     0
 42
0.0000000001
 43
0.0000000001
 12
1.0
 22
0.0
 32
0.0
 13
1.0
 23
0.0
 33
0.0
 40
0.0
 40
0.0
 40
0.0
 40
0.0
 40
0.25
 40
0.25
 40
0.25
 40
0.25
 40
0.5
 40
0.5
 40
0.5
 40
0.5
 40
1.0
 40
1.0
 40
1.0
 40
1.0
 10
-240.7255
 20
-137.4677
 30
0.0
 10
-240.7557
 20
-137.2555
 30
0.0
 10
-240.6704
 20
-137.0433
 30
0.0
 10
-240.5018
 20
-136.911
 30
0.0
 10
-240.5018
 20
-136.911
 30
0.0
 10
-240.3332
 20
-136.7787
 30
0.0
 10
-240.1067
 20
-136.7464
 30
0.0
 10
-239.9078
 20
-136.8263
 30
0.0
 10
-239.9078
 20
-136.8263
 30
0.0
 10
-239.7089
 20
-136.9063
 30
0.0
 10
-239.5678
 20
-137.0861
 30
0.0
 10
-239.5375
 20
-137.2984
 30
0.0
  0
SPLINE
  5
173
330
1F
100
AcDbEntity
  8
Layer 1
370
    15
100
AcDbSpline
210
0.0
220
0.0
230
1.0
 70
    24
 71
     3
 72
     8
 73
     4
 74
     0
 42
0.0000000001
 43
0.0000000001
 12
1.0
 22
0.0
 32
0.0
 13
1.0
 23
0.0
 33
0.0
 40
0.0
 40
0.0
 40
0.0
 40
0.0
 40
1.0
 40
1.0
 40
1.0
 40
1.0
 10
-240.7255
 20
-137.4677
 30
0.0
 10
-240.7255
 20
-137.4677
 30
0.0
 10
-240.4446
 20
-139.4386
 30
0.0
 10
-240.4446
 20
-139.4386
 30
0.0
  0
SPLINE
  5
174
330
1F
100
AcDbEntity
  8
Layer 1
370
    15
100
AcDbSpline
210
0.0
220
0.0
230
1.0
 70
    24
 71
     3
 72
     8
 73
     4
 74
     0
 42
0.0000000001
 43
0.0000000001
 12
1.0
 22
0.0
 32
0.0
 13
1.0
 23
0.0
 33
0.0
 40
0.0
 40
0.0
 40
0.0
 40
0.0
 40
1.0
 40
1.0
 40
1.0
 40
1.0
 10
-240.4446
 20
-139.4386
 30
0.0
 10
-240.4446
 20
-139.4386
 30
0.0
 10
-252.496
 20
-138.5111
 30
0.0
 10
-252.496
 20
-138.5111
 30
0.0
  0
SPLINE
  5
175
330
1F
100
AcDbEntity
  8
Layer 1
370
    15
100
AcDbSpline
210
0.0
220
0.0
230
1.0
 70
    24
 71
     3
 72
     8
 73
     4
 74
     0
 42
0.0000000001
 43
0.0000000001
 12
1.0
 22
0.0
 32
0.0
 13
1.0
 23
0.0
 33
0.0
 40
0.0
 40
0.0
 40
0.0
 40
0.0
 40
1.0
 40
1.0
 40
1.0
 40
1.0
 10
-252.496
 20
-138.5111
 30
0.0
 10
-252.496
 20
-138.5111
 30
0.0
 10
-252.8199
 20
-136.2388
 30
0.0
 10
-252.8199
 20
-136.2388
 30
0.0
  0
SPLINE
  5
176
330
1F
100
AcDbEntity
  8
Layer 1
370
    15
100
AcDbSpline
210
0.0
220
0.0
230
1.0
 70
     8
 71
     3
 72
    16
 73
    12
 74
     0
 42
0.0000000001
 43
0.0000000001
 12
1.0
 22
0.0
 32
0.0
 13
1.0
 23
0.0
 33
0.0
 40
0.0
 40
0.0
 40
0.0
 40
0.0
 40
0.25
 40
0.25
 40
0.25
 40
0.25
 40
0.5
 40
0.5
 40
0.5
 40
0.5
 40
1.0
 40
1.0
 40
1.0
 40
1.0
 10
-254.0079
 20
-136.4081
 30
0.0
 10
-254.0381
 20
-136.196
 30
0.0
 10
-253.9528
 20
-135.9837
 30
0.0
 10
-253.7842
 20
-135.8514
 30
0.0
 10
-253.7842
 20
-135.8514
 30
0.0
 10
-253.6156
 20
-135.7191
 30
0.0
 10
-253.3891
 20
-135.6868
 30
0.0
 10
-253.1902
 20
-135.7667
 30
0.0
 10
-253.1902
 20
-135.7667
 30
0.0
 10
-252.9913
 20
-135.8467
 30
0.0
 10
-252.8501
 20
-136.0266
 30
0.0
 10
-252.8199
 20
-136.2388
 30
0.0
  0
SPLINE
  5
177
330
1F
100
AcDbEntity
  8
Layer 1
370
    15
100
AcDbSpline
210
0.0
220
0.0
230
1.0
 70
    24
 71
     3
 72
     8
 73
     4
 74
     0
 42
0.0000000001
 43
0.0000000001
 12
1.0
 22
0.0
 32
0.0
 13
1.0
 23
0.0
 33
0.0
 40
0.0
 40
0.0
 40
0.0
 40
0.0
 40
1.0
 40
1.0
 40
1.0
 40
1.0
 10
-254.0079
 20
-136.4081
 30
0.0
 10
-254.0079
 20
-136.4081
 30
0.0
 10
-253.7216
 20
-138.4168
 30
0.0
 10
-253.7216
 20
-138.4168
 30
0.0
  0
SPLINE
  5
178
330
1F
100
AcDbEntity
  8
Layer 1
370
    15
100
AcDbSpline
210
0.0
220
0.0
230
1.0
 70
    24
 71
     3
 72
     8
 73
     4
 74
     0
 42
0.0000000001
 43
0.0000000001
 12
1.0
 22
0.0
 32
0.0
 13
1.0
 23
0.0
 33
0.0
 40
0.0
 40
0.0
 40
0.0
 40
0.0
 40
1.0
 40
1.0
 40
1.0
 40
1.0
 10
-253.7216
 20
-138.4168
 30
0.0
 10
-253.7216
 20
-138.4168
 30
0.0
 10
-265.773
 20
-137.4893
 30
0.0
 10
-265.773
 20
-137.4893
 30
0.0
  0
SPLINE
  5
179
330
1F
100
AcDbEntity
  8
Layer 1
370
    15
100
AcDbSpline
210
0.0
220
0.0
230
1.0
 70
    24
 71
     3
 72
     8
 73
     4
 74
     0
 42
0.0000000001
 43
0.0000000001
 12
1.0
 22
0.0
 32
0.0
 13
1.0
 23
0.0
 33
0.0
 40
0.0
 40
0.0
 40
0.0
 40
0.0
 40
1.0
 40
1.0
 40
1.0
 40
1.0
 10
-265.773
 20
-137.4893
 30
0.0
 10
-265.773
 20
-137.4893
 30
0.0
 10
-266.1023
 20
-135.1792
 30
0.0
 10
-266.1023
 20
-135.1792
 30
0.0
  0
SPLINE
  5
17A
330
1F
100
AcDbEntity
  8
Layer 1
370
    15
100
AcDbSpline
210
0.0
220
0.0
230
1.0
 70
     8
 71
     3
 72
    16
 73
    12
 74
     0
 42
0.0000000001
 43
0.0000000001
 12
1.0
 22
0.0
 32
0.0
 13
1.0
 23
0.0
 33
0.0
 40
0.0
 40
0.0
 40
0.0
 40
0.0
 40
0.25
 40
0.25
 40
0.25
 40
0.25
 40
0.5
 40
0.5
 40
0.5
 40
0.5
 40
1.0
 40
1.0
 40
1.0
 40
1.0
 10
-267.2903
 20
-135.3485
 30
0.0
 10
-267.3205
 20
-135.1363
 30
0.0
 10
-267.2352
 20
-134.9241
 30
0.0
 10
-267.0666
 20
-134.7918
 30
0.0
 10
-267.0666
 20
-134.7918
 30
0.0
 10
-266.898
 20
-134.6596
 30
0.0
 10
-266.6714
 20
-134.6273
 30
0.0
 10
-266.4726
 20
-134.7071
 30
0.0
 10
-266.4726
 20
-134.7071
 30
0.0
 10
-266.2737
 20
-134.7871
 30
0.0
 10
-266.1325
 20
-134.967
 30
0.0
 10
-266.1023
 20
-135.1792
 30
0.0
  0
SPLINE
  5
17B
330
1F
100
AcDbEntity
  8
Layer 1
370
    15
100
AcDbSpline
210
0.0
220
0.0
230
1.0
 70
    24
 71
     3
 72
     8
 73
     4
 74
     0
 42
0.0000000001
 43
0.0000000001
 12
1.0
 22
0.0
 32
0.0
 13
1.0
 23
0.0
 33
0.0
 40
0.0
 40
0.0
 40
0.0
 40
0.0
 40
1.0
 40
1.0
 40
1.0
 40
1.0
 10
-267.2903
 20
-135.3485
 30
0.0
 10
-267.2903
 20
-135.3485
 30
0.0
 10
-266.9986
 20
-137.3949
 30
0.0
 10
-266.9986
 20
-137.3949
 30
0.0
  0
SPLINE
  5
17C
330
1F
100
AcDbEntity
  8
Layer 1
370
    15
100
AcDbSpline
210
0.0
220
0.0
230
1.0
 70
    24
 71
     3
 72
     8
 73
     4
 74
     0
 42
0.0000000001
 43
0.0000000001
 12
1.0
 22
0.0
 32
0.0
 13
1.0
 23
0.0
 33
0.0
 40
0.0
 40
0.0
 40
0.0
 40
0.0
 40
1.0
 40
1.0
 40
1.0
 40
1.0
 10
-266.9986
 20
-137.3949
 30
0.0
 10
-266.9986
 20
-137.3949
 30
0.0
 10
-279.05
 20
-136.4675
 30
0.0
 10
-279.05
 20
-136.4675
 30
0.0
  0
SPLINE
  5
17D
330
1F
100
AcDbEntity
  8
Layer 1
370
    15
100
AcDbSpline
210
0.0
220
0.0
230
1.0
 70
    24
 71
     3
 72
     8
 73
     4
 74
     0
 42
0.0000000001
 43
0.0000000001
 12
1.0
 22
0.0
 32
0.0
 13
1.0
 23
0.0
 33
0.0
 40
0.0
 40
0.0
 40
0.0
 40
0.0
 40
1.0
 40
1.0
 40
1.0
 40
1.0
 10
-279.05
 20
-136.4675
 30
0.0
 10
-279.05
 20
-136.4675
 30
0.0
 10
-279.3846
 20
-134.1197
 30
0.0
 10
-279.3846
 20
-134.1197
 30
0.0
  0
SPLINE
  5
17E
330
1F
100
AcDbEntity
  8
Layer 1
370
    15
100
AcDbSpline
210
0.0
220
0.0
230
1.0
 70
     8
 71
     3
 72
    16
 73
    12
 74
     0
 42
0.0000000001
 43
0.0000000001
 12
1.0
 22
0.0
 32
0.0
 13
1.0
 23
0.0
 33
0.0
 40
0.0
 40
0.0
 40
0.0
 40
0.0
 40
0.25
 40
0.25
 40
0.25
 40
0.25
 40
0.5
 40
0.5
 40
0.5
 40
0.5
 40
1.0
 40
1.0
 40
1.0
 40
1.0
 10
-280.5726
 20
-134.289
 30
0.0
 10
-280.6029
 20
-134.0767
 30
0.0
 10
-280.5176
 20
-133.8645
 30
0.0
 10
-280.349
 20
-133.7323
 30
0.0
 10
-280.349
 20
-133.7323
 30
0.0
 10
-280.1803
 20
-133.5999
 30
0.0
 10
-279.9538
 20
-133.5677
 30
0.0
 10
-279.755
 20
-133.6476
 30
0.0
 10
-279.755
 20
-133.6476
 30
0.0
 10
-279.5561
 20
-133.7274
 30
0.0
 10
-279.4149
 20
-133.9074
 30
0.0
 10
-279.3846
 20
-134.1197
 30
0.0
  0
SPLINE
  5
17F
330
1F
100
AcDbEntity
  8
Layer 1
370
    15
100
AcDbSpline
210
0.0
220
0.0
230
1.0
 70
    24
 71
     3
 72
     8
 73
     4
 74
     0
 42
0.0000000001
 43
0.0000000001
 12
1.0
 22
0.0
 32
0.0
 13
1.0
 23
0.0
 33
0.0
 40
0.0
 40
0.0
 40
0.0
 40
0.0
 40
1.0
 40
1.0
 40
1.0
 40
1.0
 10
-280.5726
 20
-134.289
 30
0.0
 10
-280.5726
 20
-134.289
 30
0.0
 10
-280.2756
 20
-136.3731
 30
0.0
 10
-280.2756
 20
-136.3731
 30
0.0
  0
SPLINE
  5
180
330
1F
100
AcDbEntity
  8
Layer 1
370
    15
100
AcDbSpline
210
0.0
220
0.0
230
1.0
 70
    24
 71
     3
 72
     8
 73
     4
 74
     0
 42
0.0000000001
 43
0.0000000001
 12
1.0
 22
0.0
 32
0.0
 13
1.0
 23
0.0
 33
0.0
 40
0.0
 40
0.0
 40
0.0
 40
0.0
 40
1.0
 40
1.0
 40
1.0
 40
1.0
 10
-280.2756
 20
-136.3731
 30
0.0
 10
-280.2756
 20
-136.3731
 30
0.0
 10
-284.9566
 20
-136.0129
 30
0.0
 10
-284.9566
 20
-136.0129
 30
0.0
  0
SPLINE
  5
181
330
1F
100
AcDbEntity
  8
Layer 1
370
    15
100
AcDbSpline
210
0.0
220
0.0
230
1.0
 70
     8
 71
     3
 72
     8
 73
     4
 74
     0
 42
0.0000000001
 43
0.0000000001
 12
1.0
 22
0.0
 32
0.0
 13
1.0
 23
0.0
 33
0.0
 40
0.0
 40
0.0
 40
0.0
 40
0.0
 40
1.0
 40
1.0
 40
1.0
 40
1.0
 10
-284.9566
 20
-136.0129
 30
0.0
 10
-285.8914
 20
-135.941
 30
0.0
 10
-286.6508
 20
-135.2292
 30
0.0
 10
-286.7831
 20
-134.301
 30
0.0
  0
SPLINE
  5
182
330
1F
100
AcDbEntity
  8
Layer 1
370
    15
100
AcDbSpline
210
0.0
220
0.0
230
1.0
 70
    24
 71
     3
 72
     8
 73
     4
 74
     0
 42
0.0000000001
 43
0.0000000001
 12
1.0
 22
0.0
 32
0.0
 13
1.0
 23
0.0
 33
0.0
 40
0.0
 40
0.0
 40
0.0
 40
0.0
 40
1.0
 40
1.0
 40
1.0
 40
1.0
 10
-286.7831
 20
-134.301
 30
0.0
 10
-286.7831
 20
-134.301
 30
0.0
 10
-287.4697
 20
-129.4833
 30
0.0
 10
-287.4697
 20
-129.4833
 30
0.0
  0
SPLINE
  5
183
330
1F
100
AcDbEntity
  8
Layer 1
370
    15
100
AcDbSpline
210
0.0
220
0.0
230
1.0
 70
    24
 71
     3
 72
     8
 73
     4
 74
     0
 42
0.0000000001
 43
0.0000000001
 12
1.0
 22
0.0
 32
0.0
 13
1.0
 23
0.0
 33
0.0
 40
0.0
 40
0.0
 40
0.0
 40
0.0
 40
1.0
 40
1.0
 40
1.0
 40
1.0
 10
-287.4697
 20
-129.4833
 30
0.0
 10
-287.4697
 20
-129.4833
 30
0.0
 10
-284.4997
 20
-129.06
 30
0.0
 10
-284.4997
 20
-129.06
 30
0.0
  0
SPLINE
  5
184
330
1F
100
AcDbEntity
  8
Layer 1
370
    15
100
AcDbSpline
210
0.0
220
0.0
230
1.0
 70
    24
 71
     3
 72
     8
 73
     4
 74
     0
 42
0.0000000001
 43
0.0000000001
 12
1.0
 22
0.0
 32
0.0
 13
1.0
 23
0.0
 33
0.0
 40
0.0
 40
0.0
 40
0.0
 40
0.0
 40
1.0
 40
1.0
 40
1.0
 40
1.0
 10
-284.4997
 20
-129.06
 30
0.0
 10
-284.4997
 20
-129.06
 30
0.0
 10
-287.9566
 20
-104.8051
 30
0.0
 10
-287.9566
 20
-104.8051
 30
0.0
  0
SPLINE
  5
185
330
1F
100
AcDbEntity
  8
Layer 1
370
    15
100
AcDbSpline
210
0.0
220
0.0
230
1.0
 70
    24
 71
     3
 72
     8
 73
     4
 74
     0
 42
0.0000000001
 43
0.0000000001
 12
1.0
 22
0.0
 32
0.0
 13
1.0
 23
0.0
 33
0.0
 40
0.0
 40
0.0
 40
0.0
 40
0.0
 40
1.0
 40
1.0
 40
1.0
 40
1.0
 10
-287.9566
 20
-104.8051
 30
0.0
 10
-287.9566
 20
-104.8051
 30
0.0
 10
-284.4916
 20
-104.3112
 30
0.0
 10
-284.4916
 20
-104.3112
 30
0.0
  0
SPLINE
  5
186
330
1F
100
AcDbEntity
  8
Layer 1
370
    15
100
AcDbSpline
210
0.0
220
0.0
230
1.0
 70
    24
 71
     3
 72
     8
 73
     4
 74
     0
 42
0.0000000001
 43
0.0000000001
 12
1.0
 22
0.0
 32
0.0
 13
1.0
 23
0.0
 33
0.0
 40
0.0
 40
0.0
 40
0.0
 40
0.0
 40
1.0
 40
1.0
 40
1.0
 40
1.0
 10
-284.4916
 20
-104.3112
 30
0.0
 10
-284.4916
 20
-104.3112
 30
0.0
 10
-284.9149
 20
-101.3413
 30
0.0
 10
-284.9149
 20
-101.3413
 30
0.0
  0
SPLINE
  5
187
330
1F
100
AcDbEntity
  8
Layer 1
370
    15
100
AcDbSpline
210
0.0
220
0.0
230
1.0
 70
    24
 71
     3
 72
     8
 73
     4
 74
     0
 42
0.0000000001
 43
0.0000000001
 12
1.0
 22
0.0
 32
0.0
 13
1.0
 23
0.0
 33
0.0
 40
0.0
 40
0.0
 40
0.0
 40
0.0
 40
1.0
 40
1.0
 40
1.0
 40
1.0
 10
-284.9149
 20
-101.3413
 30
0.0
 10
-284.9149
 20
-101.3413
 30
0.0
 10
-288.3799
 20
-101.8351
 30
0.0
 10
-288.3799
 20
-101.8351
 30
0.0
  0
SPLINE
  5
188
330
1F
100
AcDbEntity
  8
Layer 1
370
    15
100
AcDbSpline
210
0.0
220
0.0
230
1.0
 70
    24
 71
     3
 72
     8
 73
     4
 74
     0
 42
0.0000000001
 43
0.0000000001
 12
1.0
 22
0.0
 32
0.0
 13
1.0
 23
0.0
 33
0.0
 40
0.0
 40
0.0
 40
0.0
 40
0.0
 40
1.0
 40
1.0
 40
1.0
 40
1.0
 10
-288.3799
 20
-101.8351
 30
0.0
 10
-288.3799
 20
-101.8351
 30
0.0
 10
-291.8367
 20
-77.5802
 30
0.0
 10
-291.8367
 20
-77.5802
 30
0.0
  0
SPLINE
  5
189
330
1F
100
AcDbEntity
  8
Layer 1
370
    15
100
AcDbSpline
210
0.0
220
0.0
230
1.0
 70
    24
 71
     3
 72
     8
 73
     4
 74
     0
 42
0.0000000001
 43
0.0000000001
 12
1.0
 22
0.0
 32
0.0
 13
1.0
 23
0.0
 33
0.0
 40
0.0
 40
0.0
 40
0.0
 40
0.0
 40
1.0
 40
1.0
 40
1.0
 40
1.0
 10
-291.8367
 20
-77.5802
 30
0.0
 10
-291.8367
 20
-77.5802
 30
0.0
 10
-294.8067
 20
-78.0035
 30
0.0
 10
-294.8067
 20
-78.0035
 30
0.0
  0
SPLINE
  5
18A
330
1F
100
AcDbEntity
  8
Layer 1
370
    15
100
AcDbSpline
210
0.0
220
0.0
230
1.0
 70
    24
 71
     3
 72
     8
 73
     4
 74
     0
 42
0.0000000001
 43
0.0000000001
 12
1.0
 22
0.0
 32
0.0
 13
1.0
 23
0.0
 33
0.0
 40
0.0
 40
0.0
 40
0.0
 40
0.0
 40
1.0
 40
1.0
 40
1.0
 40
1.0
 10
-294.8067
 20
-78.0035
 30
0.0
 10
-294.8067
 20
-78.0035
 30
0.0
 10
-295.4933
 20
-73.1858
 30
0.0
 10
-295.4933
 20
-73.1858
 30
0.0
  0
SPLINE
  5
18B
330
1F
100
AcDbEntity
  8
Layer 1
370
    15
100
AcDbSpline
210
0.0
220
0.0
230
1.0
 70
     8
 71
     3
 72
     8
 73
     4
 74
     0
 42
0.0000000001
 43
0.0000000001
 12
1.0
 22
0.0
 32
0.0
 13
1.0
 23
0.0
 33
0.0
 40
0.0
 40
0.0
 40
0.0
 40
0.0
 40
1.0
 40
1.0
 40
1.0
 40
1.0
 10
-295.4933
 20
-73.1858
 30
0.0
 10
-295.6256
 20
-72.2575
 30
0.0
 10
-295.0953
 20
-71.362
 30
0.0
 10
-294.2178
 20
-71.0317
 30
0.0
  0
SPLINE
  5
18C
330
1F
100
AcDbEntity
  8
Layer 1
370
    15
100
AcDbSpline
210
0.0
220
0.0
230
1.0
 70
    24
 71
     3
 72
     8
 73
     4
 74
     0
 42
0.0000000001
 43
0.0000000001
 12
1.0
 22
0.0
 32
0.0
 13
1.0
 23
0.0
 33
0.0
 40
0.0
 40
0.0
 40
0.0
 40
0.0
 40
1.0
 40
1.0
 40
1.0
 40
1.0
 10
-294.2178
 20
-71.0317
 30
0.0
 10
-294.2178
 20
-71.0317
 30
0.0
 10
-283.5924
 20
-67.0329
 30
0.0
 10
-283.5924
 20
-67.0329
 30
0.0
  0
SPLINE
  5
18D
330
1F
100
AcDbEntity
  8
Layer 1
370
    15
100
AcDbSpline
210
0.0
220
0.0
230
1.0
 70
    24
 71
     3
 72
     8
 73
     4
 74
     0
 42
0.0000000001
 43
0.0000000001
 12
1.0
 22
0.0
 32
0.0
 13
1.0
 23
0.0
 33
0.0
 40
0.0
 40
0.0
 40
0.0
 40
0.0
 40
1.0
 40
1.0
 40
1.0
 40
1.0
 10
-283.5924
 20
-67.0329
 30
0.0
 10
-283.5924
 20
-67.0329
 30
0.0
 10
-283.2981
 20
-69.0983
 30
0.0
 10
-283.2981
 20
-69.0983
 30
0.0
  0
SPLINE
  5
18E
330
1F
100
AcDbEntity
  8
Layer 1
370
    15
100
AcDbSpline
210
0.0
220
0.0
230
1.0
 70
     8
 71
     3
 72
    12
 73
     8
 74
     0
 42
0.0000000001
 43
0.0000000001
 12
1.0
 22
0.0
 32
0.0
 13
1.0
 23
0.0
 33
0.0
 40
0.0
 40
0.0
 40
0.0
 40
0.0
 40
0.3333333333333333
 40
0.3333333333333333
 40
0.3333333333333333
 40
0.3333333333333333
 40
1.0
 40
1.0
 40
1.0
 40
1.0
 10
-282.1101
 20
-68.929
 30
0.0
 10
-282.0633
 20
-69.257
 30
0.0
 10
-282.2913
 20
-69.5608
 30
0.0
 10
-282.6194
 20
-69.6076
 30
0.0
 10
-282.6194
 20
-69.6076
 30
0.0
 10
-282.9475
 20
-69.6544
 30
0.0
 10
-283.2513
 20
-69.4264
 30
0.0
 10
-283.2981
 20
-69.0983
 30
0.0
  0
SPLINE
  5
18F
330
1F
100
AcDbEntity
  8
Layer 1
370
    15
100
AcDbSpline
210
0.0
220
0.0
230
1.0
 70
    24
 71
     3
 72
     8
 73
     4
 74
     0
 42
0.0000000001
 43
0.0000000001
 12
1.0
 22
0.0
 32
0.0
 13
1.0
 23
0.0
 33
0.0
 40
0.0
 40
0.0
 40
0.0
 40
0.0
 40
1.0
 40
1.0
 40
1.0
 40
1.0
 10
-282.1101
 20
-68.929
 30
0.0
 10
-282.1101
 20
-68.929
 30
0.0
 10
-282.442
 20
-66.6
 30
0.0
 10
-282.442
 20
-66.6
 30
0.0
  0
SPLINE
  5
190
330
1F
100
AcDbEntity
  8
Layer 1
370
    15
100
AcDbSpline
210
0.0
220
0.0
230
1.0
 70
    24
 71
     3
 72
     8
 73
     4
 74
     0
 42
0.0000000001
 43
0.0000000001
 12
1.0
 22
0.0
 32
0.0
 13
1.0
 23
0.0
 33
0.0
 40
0.0
 40
0.0
 40
0.0
 40
0.0
 40
1.0
 40
1.0
 40
1.0
 40
1.0
 10
-282.442
 20
-66.6
 30
0.0
 10
-282.442
 20
-66.6
 30
0.0
 10
-271.1295
 20
-62.3426
 30
0.0
 10
-271.1295
 20
-62.3426
 30
0.0
  0
SPLINE
  5
191
330
1F
100
AcDbEntity
  8
Layer 1
370
    15
100
AcDbSpline
210
0.0
220
0.0
230
1.0
 70
    24
 71
     3
 72
     8
 73
     4
 74
     0
 42
0.0000000001
 43
0.0000000001
 12
1.0
 22
0.0
 32
0.0
 13
1.0
 23
0.0
 33
0.0
 40
0.0
 40
0.0
 40
0.0
 40
0.0
 40
1.0
 40
1.0
 40
1.0
 40
1.0
 10
-271.1295
 20
-62.3426
 30
0.0
 10
-271.1295
 20
-62.3426
 30
0.0
 10
-270.8406
 20
-64.3702
 30
0.0
 10
-270.8406
 20
-64.3702
 30
0.0
  0
SPLINE
  5
192
330
1F
100
AcDbEntity
  8
Layer 1
370
    15
100
AcDbSpline
210
0.0
220
0.0
230
1.0
 70
     8
 71
     3
 72
    12
 73
     8
 74
     0
 42
0.0000000001
 43
0.0000000001
 12
1.0
 22
0.0
 32
0.0
 13
1.0
 23
0.0
 33
0.0
 40
0.0
 40
0.0
 40
0.0
 40
0.0
 40
0.3333333333333333
 40
0.3333333333333333
 40
0.3333333333333333
 40
0.3333333333333333
 40
1.0
 40
1.0
 40
1.0
 40
1.0
 10
-269.6526
 20
-64.2008
 30
0.0
 10
-269.6058
 20
-64.5289
 30
0.0
 10
-269.8338
 20
-64.8327
 30
0.0
 10
-270.1619
 20
-64.8795
 30
0.0
 10
-270.1619
 20
-64.8795
 30
0.0
 10
-270.49
 20
-64.9263
 30
0.0
 10
-270.7938
 20
-64.6982
 30
0.0
 10
-270.8406
 20
-64.3702
 30
0.0
  0
SPLINE
  5
193
330
1F
100
AcDbEntity
  8
Layer 1
370
    15
100
AcDbSpline
210
0.0
220
0.0
230
1.0
 70
    24
 71
     3
 72
     8
 73
     4
 74
     0
 42
0.0000000001
 43
0.0000000001
 12
1.0
 22
0.0
 32
0.0
 13
1.0
 23
0.0
 33
0.0
 40
0.0
 40
0.0
 40
0.0
 40
0.0
 40
1.0
 40
1.0
 40
1.0
 40
1.0
 10
-269.6526
 20
-64.2008
 30
0.0
 10
-269.6526
 20
-64.2008
 30
0.0
 10
-269.9791
 20
-61.9097
 30
0.0
 10
-269.9791
 20
-61.9097
 30
0.0
  0
SPLINE
  5
194
330
1F
100
AcDbEntity
  8
Layer 1
370
    15
100
AcDbSpline
210
0.0
220
0.0
230
1.0
 70
    24
 71
     3
 72
     8
 73
     4
 74
     0
 42
0.0000000001
 43
0.0000000001
 12
1.0
 22
0.0
 32
0.0
 13
1.0
 23
0.0
 33
0.0
 40
0.0
 40
0.0
 40
0.0
 40
0.0
 40
1.0
 40
1.0
 40
1.0
 40
1.0
 10
-269.9791
 20
-61.9097
 30
0.0
 10
-269.9791
 20
-61.9097
 30
0.0
 10
-258.6666
 20
-57.6524
 30
0.0
 10
-258.6666
 20
-57.6524
 30
0.0
  0
SPLINE
  5
195
330
1F
100
AcDbEntity
  8
Layer 1
370
    15
100
AcDbSpline
210
0.0
220
0.0
230
1.0
 70
    24
 71
     3
 72
     8
 73
     4
 74
     0
 42
0.0000000001
 43
0.0000000001
 12
1.0
 22
0.0
 32
0.0
 13
1.0
 23
0.0
 33
0.0
 40
0.0
 40
0.0
 40
0.0
 40
0.0
 40
1.0
 40
1.0
 40
1.0
 40
1.0
 10
-258.6666
 20
-57.6524
 30
0.0
 10
-258.6666
 20
-57.6524
 30
0.0
 10
-258.3831
 20
-59.6421
 30
0.0
 10
-258.3831
 20
-59.6421
 30
0.0
  0
SPLINE
  5
196
330
1F
100
AcDbEntity
  8
Layer 1
370
    15
100
AcDbSpline
210
0.0
220
0.0
230
1.0
 70
     8
 71
     3
 72
    12
 73
     8
 74
     0
 42
0.0000000001
 43
0.0000000001
 12
1.0
 22
0.0
 32
0.0
 13
1.0
 23
0.0
 33
0.0
 40
0.0
 40
0.0
 40
0.0
 40
0.0
 40
0.3333333333333333
 40
0.3333333333333333
 40
0.3333333333333333
 40
0.3333333333333333
 40
1.0
 40
1.0
 40
1.0
 40
1.0
 10
-257.1951
 20
-59.4727
 30
0.0
 10
-257.1483
 20
-59.8008
 30
0.0
 10
-257.3763
 20
-60.1046
 30
0.0
 10
-257.7044
 20
-60.1514
 30
0.0
 10
-257.7044
 20
-60.1514
 30
0.0
 10
-258.0325
 20
-60.1981
 30
0.0
 10
-258.3363
 20
-59.9701
 30
0.0
 10
-258.3831
 20
-59.6421
 30
0.0
  0
SPLINE
  5
197
330
1F
100
AcDbEntity
  8
Layer 1
370
    15
100
AcDbSpline
210
0.0
220
0.0
230
1.0
 70
    24
 71
     3
 72
     8
 73
     4
 74
     0
 42
0.0000000001
 43
0.0000000001
 12
1.0
 22
0.0
 32
0.0
 13
1.0
 23
0.0
 33
0.0
 40
0.0
 40
0.0
 40
0.0
 40
0.0
 40
1.0
 40
1.0
 40
1.0
 40
1.0
 10
-257.1951
 20
-59.4727
 30
0.0
 10
-257.1951
 20
-59.4727
 30
0.0
 10
-257.5162
 20
-57.2193
 30
0.0
 10
-257.5162
 20
-57.2193
 30
0.0
  0
SPLINE
  5
198
330
1F
100
AcDbEntity
  8
Layer 1
370
    15
100
AcDbSpline
210
0.0
220
0.0
230
1.0
 70
    24
 71
     3
 72
     8
 73
     4
 74
     0
 42
0.0000000001
 43
0.0000000001
 12
1.0
 22
0.0
 32
0.0
 13
1.0
 23
0.0
 33
0.0
 40
0.0
 40
0.0
 40
0.0
 40
0.0
 40
1.0
 40
1.0
 40
1.0
 40
1.0
 10
-257.5162
 20
-57.2193
 30
0.0
 10
-257.5162
 20
-57.2193
 30
0.0
 10
-246.2037
 20
-52.962
 30
0.0
 10
-246.2037
 20
-52.962
 30
0.0
  0
SPLINE
  5
199
330
1F
100
AcDbEntity
  8
Layer 1
370
    15
100
AcDbSpline
210
0.0
220
0.0
230
1.0
 70
    24
 71
     3
 72
     8
 73
     4
 74
     0
 42
0.0000000001
 43
0.0000000001
 12
1.0
 22
0.0
 32
0.0
 13
1.0
 23
0.0
 33
0.0
 40
0.0
 40
0.0
 40
0.0
 40
0.0
 40
1.0
 40
1.0
 40
1.0
 40
1.0
 10
-246.2037
 20
-52.962
 30
0.0
 10
-246.2037
 20
-52.962
 30
0.0
 10
-245.9255
 20
-54.914
 30
0.0
 10
-245.9255
 20
-54.914
 30
0.0
  0
SPLINE
  5
19A
330
1F
100
AcDbEntity
  8
Layer 1
370
    15
100
AcDbSpline
210
0.0
220
0.0
230
1.0
 70
     8
 71
     3
 72
    12
 73
     8
 74
     0
 42
0.0000000001
 43
0.0000000001
 12
1.0
 22
0.0
 32
0.0
 13
1.0
 23
0.0
 33
0.0
 40
0.0
 40
0.0
 40
0.0
 40
0.0
 40
0.3333333333333333
 40
0.3333333333333333
 40
0.3333333333333333
 40
0.3333333333333333
 40
1.0
 40
1.0
 40
1.0
 40
1.0
 10
-244.7375
 20
-54.7447
 30
0.0
 10
-244.6908
 20
-55.0727
 30
0.0
 10
-244.9188
 20
-55.3766
 30
0.0
 10
-245.2469
 20
-55.4234
 30
0.0
 10
-245.2469
 20
-55.4234
 30
0.0
 10
-245.575
 20
-55.4701
 30
0.0
 10
-245.8788
 20
-55.242
 30
0.0
 10
-245.9255
 20
-54.914
 30
0.0
  0
SPLINE
  5
19B
330
1F
100
AcDbEntity
  8
Layer 1
370
    15
100
AcDbSpline
210
0.0
220
0.0
230
1.0
 70
    24
 71
     3
 72
     8
 73
     4
 74
     0
 42
0.0000000001
 43
0.0000000001
 12
1.0
 22
0.0
 32
0.0
 13
1.0
 23
0.0
 33
0.0
 40
0.0
 40
0.0
 40
0.0
 40
0.0
 40
1.0
 40
1.0
 40
1.0
 40
1.0
 10
-244.7375
 20
-54.7447
 30
0.0
 10
-244.7375
 20
-54.7447
 30
0.0
 10
-245.0533
 20
-52.529
 30
0.0
 10
-245.0533
 20
-52.529
 30
0.0
  0
SPLINE
  5
19C
330
1F
100
AcDbEntity
  8
Layer 1
370
    15
100
AcDbSpline
210
0.0
220
0.0
230
1.0
 70
    24
 71
     3
 72
     8
 73
     4
 74
     0
 42
0.0000000001
 43
0.0000000001
 12
1.0
 22
0.0
 32
0.0
 13
1.0
 23
0.0
 33
0.0
 40
0.0
 40
0.0
 40
0.0
 40
0.0
 40
1.0
 40
1.0
 40
1.0
 40
1.0
 10
-245.0533
 20
-52.529
 30
0.0
 10
-245.0533
 20
-52.529
 30
0.0
 10
-233.7408
 20
-48.2717
 30
0.0
 10
-233.7408
 20
-48.2717
 30
0.0
  0
SPLINE
  5
19D
330
1F
100
AcDbEntity
  8
Layer 1
370
    15
100
AcDbSpline
210
0.0
220
0.0
230
1.0
 70
    24
 71
     3
 72
     8
 73
     4
 74
     0
 42
0.0000000001
 43
0.0000000001
 12
1.0
 22
0.0
 32
0.0
 13
1.0
 23
0.0
 33
0.0
 40
0.0
 40
0.0
 40
0.0
 40
0.0
 40
1.0
 40
1.0
 40
1.0
 40
1.0
 10
-233.7408
 20
-48.2717
 30
0.0
 10
-233.7408
 20
-48.2717
 30
0.0
 10
-233.468
 20
-50.1859
 30
0.0
 10
-233.468
 20
-50.1859
 30
0.0
  0
SPLINE
  5
19E
330
1F
100
AcDbEntity
  8
Layer 1
370
    15
100
AcDbSpline
210
0.0
220
0.0
230
1.0
 70
     8
 71
     3
 72
    12
 73
     8
 74
     0
 42
0.0000000001
 43
0.0000000001
 12
1.0
 22
0.0
 32
0.0
 13
1.0
 23
0.0
 33
0.0
 40
0.0
 40
0.0
 40
0.0
 40
0.0
 40
0.3333333333333333
 40
0.3333333333333333
 40
0.3333333333333333
 40
0.3333333333333333
 40
1.0
 40
1.0
 40
1.0
 40
1.0
 10
-232.28
 20
-50.0166
 30
0.0
 10
-232.2333
 20
-50.3447
 30
0.0
 10
-232.4613
 20
-50.6485
 30
0.0
 10
-232.7894
 20
-50.6953
 30
0.0
 10
-232.7894
 20
-50.6953
 30
0.0
 10
-233.1175
 20
-50.742
 30
0.0
 10
-233.4213
 20
-50.514
 30
0.0
 10
-233.468
 20
-50.1859
 30
0.0
  0
SPLINE
  5
19F
330
1F
100
AcDbEntity
  8
Layer 1
370
    15
100
AcDbSpline
210
0.0
220
0.0
230
1.0
 70
    24
 71
     3
 72
     8
 73
     4
 74
     0
 42
0.0000000001
 43
0.0000000001
 12
1.0
 22
0.0
 32
0.0
 13
1.0
 23
0.0
 33
0.0
 40
0.0
 40
0.0
 40
0.0
 40
0.0
 40
1.0
 40
1.0
 40
1.0
 40
1.0
 10
-232.28
 20
-50.0166
 30
0.0
 10
-232.28
 20
-50.0166
 30
0.0
 10
-232.5904
 20
-47.8387
 30
0.0
 10
-232.5904
 20
-47.8387
 30
0.0
  0
SPLINE
  5
1A0
330
1F
100
AcDbEntity
  8
Layer 1
370
    15
100
AcDbSpline
210
0.0
220
0.0
230
1.0
 70
    24
 71
     3
 72
     8
 73
     4
 74
     0
 42
0.0000000001
 43
0.0000000001
 12
1.0
 22
0.0
 32
0.0
 13
1.0
 23
0.0
 33
0.0
 40
0.0
 40
0.0
 40
0.0
 40
0.0
 40
1.0
 40
1.0
 40
1.0
 40
1.0
 10
-232.5904
 20
-47.8387
 30
0.0
 10
-232.5904
 20
-47.8387
 30
0.0
 10
-221.2779
 20
-43.5814
 30
0.0
 10
-221.2779
 20
-43.5814
 30
0.0
  0
SPLINE
  5
1A1
330
1F
100
AcDbEntity
  8
Layer 1
370
    15
100
AcDbSpline
210
0.0
220
0.0
230
1.0
 70
    24
 71
     3
 72
     8
 73
     4
 74
     0
 42
0.0000000001
 43
0.0000000001
 12
1.0
 22
0.0
 32
0.0
 13
1.0
 23
0.0
 33
0.0
 40
0.0
 40
0.0
 40
0.0
 40
0.0
 40
1.0
 40
1.0
 40
1.0
 40
1.0
 10
-221.2779
 20
-43.5814
 30
0.0
 10
-221.2779
 20
-43.5814
 30
0.0
 10
-221.0105
 20
-45.4578
 30
0.0
 10
-221.0105
 20
-45.4578
 30
0.0
  0
SPLINE
  5
1A2
330
1F
100
AcDbEntity
  8
Layer 1
370
    15
100
AcDbSpline
210
0.0
220
0.0
230
1.0
 70
     8
 71
     3
 72
    12
 73
     8
 74
     0
 42
0.0000000001
 43
0.0000000001
 12
1.0
 22
0.0
 32
0.0
 13
1.0
 23
0.0
 33
0.0
 40
0.0
 40
0.0
 40
0.0
 40
0.0
 40
0.3333333333333333
 40
0.3333333333333333
 40
0.3333333333333333
 40
0.3333333333333333
 40
1.0
 40
1.0
 40
1.0
 40
1.0
 10
-219.8225
 20
-45.2885
 30
0.0
 10
-219.7758
 20
-45.6166
 30
0.0
 10
-220.0038
 20
-45.9204
 30
0.0
 10
-220.3319
 20
-45.9672
 30
0.0
 10
-220.3319
 20
-45.9672
 30
0.0
 10
-220.6599
 20
-46.0139
 30
0.0
 10
-220.9638
 20
-45.7859
 30
0.0
 10
-221.0105
 20
-45.4578
 30
0.0
  0
SPLINE
  5
1A3
330
1F
100
AcDbEntity
  8
Layer 1
370
    15
100
AcDbSpline
210
0.0
220
0.0
230
1.0
 70
    24
 71
     3
 72
     8
 73
     4
 74
     0
 42
0.0000000001
 43
0.0000000001
 12
1.0
 22
0.0
 32
0.0
 13
1.0
 23
0.0
 33
0.0
 40
0.0
 40
0.0
 40
0.0
 40
0.0
 40
1.0
 40
1.0
 40
1.0
 40
1.0
 10
-219.8225
 20
-45.2885
 30
0.0
 10
-219.8225
 20
-45.2885
 30
0.0
 10
-220.1275
 20
-43.1483
 30
0.0
 10
-220.1275
 20
-43.1483
 30
0.0
  0
SPLINE
  5
1A4
330
1F
100
AcDbEntity
  8
Layer 1
370
    15
100
AcDbSpline
210
0.0
220
0.0
230
1.0
 70
    24
 71
     3
 72
     8
 73
     4
 74
     0
 42
0.0000000001
 43
0.0000000001
 12
1.0
 22
0.0
 32
0.0
 13
1.0
 23
0.0
 33
0.0
 40
0.0
 40
0.0
 40
0.0
 40
0.0
 40
1.0
 40
1.0
 40
1.0
 40
1.0
 10
-220.1275
 20
-43.1483
 30
0.0
 10
-220.1275
 20
-43.1483
 30
0.0
 10
-211.9711
 20
-40.0788
 30
0.0
 10
-211.9711
 20
-40.0788
 30
0.0
  0
SPLINE
  5
1A5
330
1F
100
AcDbEntity
  8
Layer 1
370
    15
100
AcDbSpline
210
0.0
220
0.0
230
1.0
 70
     8
 71
     3
 72
     8
 73
     4
 74
     0
 42
0.0000000001
 43
0.0000000001
 12
1.0
 22
0.0
 32
0.0
 13
1.0
 23
0.0
 33
0.0
 40
0.0
 40
0.0
 40
0.0
 40
0.0
 40
1.0
 40
1.0
 40
1.0
 40
1.0
 10
-211.9711
 20
-40.0788
 30
0.0
 10
-211.562
 20
-39.9248
 30
0.0
 10
-211.1372
 20
-39.816
 30
0.0
 10
-210.7044
 20
-39.7543
 30
0.0
  0
SPLINE
  5
1A6
330
1F
100
AcDbEntity
  8
Layer 1
370
    15
100
AcDbSpline
210
0.0
220
0.0
230
1.0
 70
    24
 71
     3
 72
     8
 73
     4
 74
     0
 42
0.0000000001
 43
0.0000000001
 12
1.0
 22
0.0
 32
0.0
 13
1.0
 23
0.0
 33
0.0
 40
0.0
 40
0.0
 40
0.0
 40
0.0
 40
1.0
 40
1.0
 40
1.0
 40
1.0
 10
-210.7044
 20
-39.7543
 30
0.0
 10
-210.7044
 20
-39.7543
 30
0.0
 10
-206.4056
 20
-39.1416
 30
0.0
 10
-206.4056
 20
-39.1416
 30
0.0
  0
SPLINE
  5
1A7
330
1F
100
AcDbEntity
  8
Layer 1
370
    15
100
AcDbSpline
210
0.0
220
0.0
230
1.0
 70
    24
 71
     3
 72
     8
 73
     4
 74
     0
 42
0.0000000001
 43
0.0000000001
 12
1.0
 22
0.0
 32
0.0
 13
1.0
 23
0.0
 33
0.0
 40
0.0
 40
0.0
 40
0.0
 40
0.0
 40
1.0
 40
1.0
 40
1.0
 40
1.0
 10
-206.4056
 20
-39.1416
 30
0.0
 10
-206.4056
 20
-39.1416
 30
0.0
 10
-204.8217
 20
-50.2546
 30
0.0
 10
-204.8217
 20
-50.2546
 30
0.0
  0
SPLINE
  5
1A8
330
1F
100
AcDbEntity
  8
Layer 1
370
    15
100
AcDbSpline
210
0.0
220
0.0
230
1.0
 70
    24
 71
     3
 72
     8
 73
     4
 74
     0
 42
0.0000000001
 43
0.0000000001
 12
1.0
 22
0.0
 32
0.0
 13
1.0
 23
0.0
 33
0.0
 40
0.0
 40
0.0
 40
0.0
 40
0.0
 40
1.0
 40
1.0
 40
1.0
 40
1.0
 10
-204.8217
 20
-50.2546
 30
0.0
 10
-204.8217
 20
-50.2546
 30
0.0
 10
-213.4728
 20
-51.4876
 30
0.0
 10
-213.4728
 20
-51.4876
 30
0.0
  0
SPLINE
  5
1A9
330
1F
100
AcDbEntity
  8
Layer 1
370
    15
100
AcDbSpline
210
0.0
220
0.0
230
1.0
 70
     8
 71
     3
 72
     8
 73
     4
 74
     0
 42
0.0000000001
 43
0.0000000001
 12
1.0
 22
0.0
 32
0.0
 13
1.0
 23
0.0
 33
0.0
 40
0.0
 40
0.0
 40
0.0
 40
0.0
 40
1.0
 40
1.0
 40
1.0
 40
1.0
 10
-215.0122
 20
-51.8656
 30
0.0
 10
-214.5128
 20
-51.689
 30
0.0
 10
-213.9972
 20
-51.5623
 30
0.0
 10
-213.4728
 20
-51.4876
 30
0.0
  0
SPLINE
  5
1AA
330
1F
100
AcDbEntity
  8
Layer 1
370
    15
100
AcDbSpline
210
0.0
220
0.0
230
1.0
 70
    24
 71
     3
 72
     8
 73
     4
 74
     0
 42
0.0000000001
 43
0.0000000001
 12
1.0
 22
0.0
 32
0.0
 13
1.0
 23
0.0
 33
0.0
 40
0.0
 40
0.0
 40
0.0
 40
0.0
 40
1.0
 40
1.0
 40
1.0
 40
1.0
 10
-215.0122
 20
-51.8656
 30
0.0
 10
-215.0122
 20
-51.8656
 30
0.0
 10
-282.5907
 20
-75.7731
 30
0.0
 10
-282.5907
 20
-75.7731
 30
0.0
  0
SPLINE
  5
1AB
330
1F
100
AcDbEntity
  8
Layer 1
370
    15
100
AcDbSpline
210
0.0
220
0.0
230
1.0
 70
     8
 71
     3
 72
     8
 73
     4
 74
     0
 42
0.0000000001
 43
0.0000000001
 12
1.0
 22
0.0
 32
0.0
 13
1.0
 23
0.0
 33
0.0
 40
0.0
 40
0.0
 40
0.0
 40
0.0
 40
1.0
 40
1.0
 40
1.0
 40
1.0
 10
-284.5601
 20
-79.0246
 30
0.0
 10
-284.7617
 20
-77.6101
 30
0.0
 10
-283.9377
 20
-76.2497
 30
0.0
 10
-282.5907
 20
-75.7731
 30
0.0
  0
SPLINE
  5
1AC
330
1F
100
AcDbEntity
  8
Layer 1
370
    15
100
AcDbSpline
210
0.0
220
0.0
230
1.0
 70
    24
 71
     3
 72
     8
 73
     4
 74
     0
 42
0.0000000001
 43
0.0000000001
 12
1.0
 22
0.0
 32
0.0
 13
1.0
 23
0.0
 33
0.0
 40
0.0
 40
0.0
 40
0.0
 40
0.0
 40
1.0
 40
1.0
 40
1.0
 40
1.0
 10
-284.5601
 20
-79.0246
 30
0.0
 10
-284.5601
 20
-79.0246
 30
0.0
 10
-277.9164
 20
-125.6402
 30
0.0
 10
-277.9164
 20
-125.6402
 30
0.0
  0
SPLINE
  5
1AD
330
1F
100
AcDbEntity
  8
Layer 1
370
    15
100
AcDbSpline
210
0.0
220
0.0
230
1.0
 70
     8
 71
     3
 72
     8
 73
     4
 74
     0
 42
0.0000000001
 43
0.0000000001
 12
1.0
 22
0.0
 32
0.0
 13
1.0
 23
0.0
 33
0.0
 40
0.0
 40
0.0
 40
0.0
 40
0.0
 40
1.0
 40
1.0
 40
1.0
 40
1.0
 10
-275.117
 20
-128.212
 30
0.0
 10
-276.5435
 20
-128.1308
 30
0.0
 10
-277.7148
 20
-127.0547
 30
0.0
 10
-277.9164
 20
-125.6402
 30
0.0
  0
SPLINE
  5
1AE
330
1F
100
AcDbEntity
  8
Layer 1
370
    15
100
AcDbSpline
210
0.0
220
0.0
230
1.0
 70
    24
 71
     3
 72
     8
 73
     4
 74
     0
 42
0.0000000001
 43
0.0000000001
 12
1.0
 22
0.0
 32
0.0
 13
1.0
 23
0.0
 33
0.0
 40
0.0
 40
0.0
 40
0.0
 40
0.0
 40
1.0
 40
1.0
 40
1.0
 40
1.0
 10
-275.117
 20
-128.212
 30
0.0
 10
-275.117
 20
-128.212
 30
0.0
 10
-203.5502
 20
-132.2883
 30
0.0
 10
-203.5502
 20
-132.2883
 30
0.0
  0
SPLINE
  5
1AF
330
1F
100
AcDbEntity
  8
Layer 1
370
    15
100
AcDbSpline
210
0.0
220
0.0
230
1.0
 70
     8
 71
     3
 72
     8
 73
     4
 74
     0
 42
0.0000000001
 43
0.0000000001
 12
1.0
 22
0.0
 32
0.0
 13
1.0
 23
0.0
 33
0.0
 40
0.0
 40
0.0
 40
0.0
 40
0.0
 40
1.0
 40
1.0
 40
1.0
 40
1.0
 10
-201.9665
 20
-132.2212
 30
0.0
 10
-202.4909
 20
-132.2959
 30
0.0
 10
-203.0214
 20
-132.3184
 30
0.0
 10
-203.5502
 20
-132.2883
 30
0.0
  0
SPLINE
  5
1B0
330
1F
100
AcDbEntity
  8
Layer 1
370
    15
100
AcDbSpline
210
0.0
220
0.0
230
1.0
 70
    24
 71
     3
 72
     8
 73
     4
 74
     0
 42
0.0000000001
 43
0.0000000001
 12
1.0
 22
0.0
 32
0.0
 13
1.0
 23
0.0
 33
0.0
 40
0.0
 40
0.0
 40
0.0
 40
0.0
 40
1.0
 40
1.0
 40
1.0
 40
1.0
 10
-201.9665
 20
-132.2212
 30
0.0
 10
-201.9665
 20
-132.2212
 30
0.0
 10
-193.3154
 20
-130.9882
 30
0.0
 10
-193.3154
 20
-130.9882
 30
0.0
  0
SPLINE
  5
1B1
330
1F
100
AcDbEntity
  8
Layer 1
370
    15
100
AcDbSpline
210
0.0
220
0.0
230
1.0
 70
    24
 71
     3
 72
     8
 73
     4
 74
     0
 42
0.0000000001
 43
0.0000000001
 12
1.0
 22
0.0
 32
0.0
 13
1.0
 23
0.0
 33
0.0
 40
0.0
 40
0.0
 40
0.0
 40
0.0
 40
1.0
 40
1.0
 40
1.0
 40
1.0
 10
-193.3154
 20
-130.9882
 30
0.0
 10
-193.3154
 20
-130.9882
 30
0.0
 10
-191.7316
 20
-142.1012
 30
0.0
 10
-191.7316
 20
-142.1012
 30
0.0
  0
SPLINE
  5
1B2
330
1F
100
AcDbEntity
  8
Layer 1
370
    15
100
AcDbSpline
210
0.0
220
0.0
230
1.0
 70
    24
 71
     3
 72
     8
 73
     4
 74
     0
 42
0.0000000001
 43
0.0000000001
 12
1.0
 22
0.0
 32
0.0
 13
1.0
 23
0.0
 33
0.0
 40
0.0
 40
0.0
 40
0.0
 40
0.0
 40
1.0
 40
1.0
 40
1.0
 40
1.0
 10
-191.7316
 20
-142.1012
 30
0.0
 10
-191.7316
 20
-142.1012
 30
0.0
 10
-196.0303
 20
-142.7139
 30
0.0
 10
-196.0303
 20
-142.7139
 30
0.0
  0
SPLINE
  5
1B3
330
1F
100
AcDbEntity
  8
Layer 1
370
    15
100
AcDbSpline
210
0.0
220
0.0
230
1.0
 70
     8
 71
     3
 72
     8
 73
     4
 74
     0
 42
0.0000000001
 43
0.0000000001
 12
1.0
 22
0.0
 32
0.0
 13
1.0
 23
0.0
 33
0.0
 40
0.0
 40
0.0
 40
0.0
 40
0.0
 40
1.0
 40
1.0
 40
1.0
 40
1.0
 10
-196.0303
 20
-142.7139
 30
0.0
 10
-196.4632
 20
-142.7756
 30
0.0
 10
-196.9015
 20
-142.7897
 30
0.0
 10
-197.3374
 20
-142.7562
 30
0.0
  0
SPLINE
  5
1B4
330
1F
100
AcDbEntity
  8
Layer 1
370
    15
100
AcDbSpline
210
0.0
220
0.0
230
1.0
 70
    24
 71
     3
 72
     8
 73
     4
 74
     0
 42
0.0000000001
 43
0.0000000001
 12
1.0
 22
0.0
 32
0.0
 13
1.0
 23
0.0
 33
0.0
 40
0.0
 40
0.0
 40
0.0
 40
0.0
 40
1.0
 40
1.0
 40
1.0
 40
1.0
 10
-197.3374
 20
-142.7562
 30
0.0
 10
-197.3374
 20
-142.7562
 30
0.0
 10
-199.388
 20
-142.5984
 30
0.0
 10
-199.388
 20
-142.5984
 30
0.0
  0
SPLINE
  5
1B5
330
1F
100
AcDbEntity
  8
Layer 1
370
    15
100
AcDbSpline
210
0.0
220
0.0
230
1.0
 70
    24
 71
     3
 72
     8
 73
     4
 74
     0
 42
0.0000000001
 43
0.0000000001
 12
1.0
 22
0.0
 32
0.0
 13
1.0
 23
0.0
 33
0.0
 40
0.0
 40
0.0
 40
0.0
 40
0.0
 40
1.0
 40
1.0
 40
1.0
 40
1.0
 10
-199.388
 20
-142.5984
 30
0.0
 10
-199.388
 20
-142.5984
 30
0.0
 10
-199.6904
 20
-140.4771
 30
0.0
 10
-199.6904
 20
-140.4771
 30
0.0
  0
SPLINE
  5
1B6
330
1F
100
AcDbEntity
  8
Layer 1
370
    15
100
AcDbSpline
210
0.0
220
0.0
230
1.0
 70
     8
 71
     3
 72
     8
 73
     4
 74
     0
 42
0.0000000001
 43
0.0000000001
 12
1.0
 22
0.0
 32
0.0
 13
1.0
 23
0.0
 33
0.0
 40
0.0
 40
0.0
 40
0.0
 40
0.0
 40
1.0
 40
1.0
 40
1.0
 40
1.0
 10
-243.7033
 20
-40.613
 30
0.0
 10
-241.5452
 20
-40.8849
 30
0.0
 10
-239.3614
 20
-40.8849
 30
0.0
 10
-237.2033
 20
-40.613
 30
0.0
  0
SPLINE
  5
1B7
330
1F
100
AcDbEntity
  8
Layer 1
370
    15
100
AcDbSpline
210
0.0
220
0.0
230
1.0
 70
     8
 71
     3
 72
     8
 73
     4
 74
     0
 42
0.0000000001
 43
0.0000000001
 12
1.0
 22
0.0
 32
0.0
 13
1.0
 23
0.0
 33
0.0
 40
0.0
 40
0.0
 40
0.0
 40
0.0
 40
1.0
 40
1.0
 40
1.0
 40
1.0
 10
-237.2033
 20
-40.613
 30
0.0
 10
-236.2033
 20
-40.487
 30
0.0
 10
-235.4533
 20
-39.6366
 30
0.0
 10
-235.4533
 20
-38.6287
 30
0.0
  0
SPLINE
  5
1B8
330
1F
100
AcDbEntity
  8
Layer 1
370
    15
100
AcDbSpline
210
0.0
220
0.0
230
1.0
 70
    24
 71
     3
 72
     8
 73
     4
 74
     0
 42
0.0000000001
 43
0.0000000001
 12
1.0
 22
0.0
 32
0.0
 13
1.0
 23
0.0
 33
0.0
 40
0.0
 40
0.0
 40
0.0
 40
0.0
 40
1.0
 40
1.0
 40
1.0
 40
1.0
 10
-235.4533
 20
-38.6287
 30
0.0
 10
-235.4533
 20
-38.6287
 30
0.0
 10
-235.4533
 20
-33.8169
 30
0.0
 10
-235.4533
 20
-33.8169
 30
0.0
  0
SPLINE
  5
1B9
330
1F
100
AcDbEntity
  8
Layer 1
370
    15
100
AcDbSpline
210
0.0
220
0.0
230
1.0
 70
     8
 71
     3
 72
    12
 73
     8
 74
     0
 42
0.0000000001
 43
0.0000000001
 12
1.0
 22
0.0
 32
0.0
 13
1.0
 23
0.0
 33
0.0
 40
0.0
 40
0.0
 40
0.0
 40
0.0
 40
0.3333333333333333
 40
0.3333333333333333
 40
0.3333333333333333
 40
0.3333333333333333
 40
1.0
 40
1.0
 40
1.0
 40
1.0
 10
-221.4533
 20
-19.8169
 30
0.0
 10
-225.1663
 20
-19.8169
 30
0.0
 10
-228.7273
 20
-21.2919
 30
0.0
 10
-231.3528
 20
-23.9174
 30
0.0
 10
-231.3528
 20
-23.9174
 30
0.0
 10
-233.9783
 20
-26.5429
 30
0.0
 10
-235.4533
 20
-30.1039
 30
0.0
 10
-235.4533
 20
-33.8169
 30
0.0
  0
SPLINE
  5
1BA
330
1F
100
AcDbEntity
  8
Layer 1
370
    15
100
AcDbSpline
210
0.0
220
0.0
230
1.0
 70
    24
 71
     3
 72
     8
 73
     4
 74
     0
 42
0.0000000001
 43
0.0000000001
 12
1.0
 22
0.0
 32
0.0
 13
1.0
 23
0.0
 33
0.0
 40
0.0
 40
0.0
 40
0.0
 40
0.0
 40
1.0
 40
1.0
 40
1.0
 40
1.0
 10
-221.4533
 20
-19.8169
 30
0.0
 10
-221.4533
 20
-19.8169
 30
0.0
 10
-216.6415
 20
-19.8169
 30
0.0
 10
-216.6415
 20
-19.8169
 30
0.0
  0
SPLINE
  5
1BB
330
1F
100
AcDbEntity
  8
Layer 1
370
    15
100
AcDbSpline
210
0.0
220
0.0
230
1.0
 70
     8
 71
     3
 72
     8
 73
     4
 74
     0
 42
0.0000000001
 43
0.0000000001
 12
1.0
 22
0.0
 32
0.0
 13
1.0
 23
0.0
 33
0.0
 40
0.0
 40
0.0
 40
0.0
 40
0.0
 40
1.0
 40
1.0
 40
1.0
 40
1.0
 10
-216.6415
 20
-19.8169
 30
0.0
 10
-215.6336
 20
-19.8169
 30
0.0
 10
-214.7832
 20
-19.0669
 30
0.0
 10
-214.6572
 20
-18.0669
 30
0.0
  0
SPLINE
  5
1BC
330
1F
100
AcDbEntity
  8
Layer 1
370
    15
100
AcDbSpline
210
0.0
220
0.0
230
1.0
 70
     8
 71
     3
 72
     8
 73
     4
 74
     0
 42
0.0000000001
 43
0.0000000001
 12
1.0
 22
0.0
 32
0.0
 13
1.0
 23
0.0
 33
0.0
 40
0.0
 40
0.0
 40
0.0
 40
0.0
 40
1.0
 40
1.0
 40
1.0
 40
1.0
 10
-214.6572
 20
-18.0669
 30
0.0
 10
-214.3853
 20
-15.9088
 30
0.0
 10
-214.3853
 20
-13.725
 30
0.0
 10
-214.6572
 20
-11.5669
 30
0.0
  0
SPLINE
  5
1BD
330
1F
100
AcDbEntity
  8
Layer 1
370
    15
100
AcDbSpline
210
0.0
220
0.0
230
1.0
 70
     8
 71
     3
 72
     8
 73
     4
 74
     0
 42
0.0000000001
 43
0.0000000001
 12
1.0
 22
0.0
 32
0.0
 13
1.0
 23
0.0
 33
0.0
 40
0.0
 40
0.0
 40
0.0
 40
0.0
 40
1.0
 40
1.0
 40
1.0
 40
1.0
 10
-214.6572
 20
-11.5669
 30
0.0
 10
-214.7832
 20
-10.5669
 30
0.0
 10
-215.6336
 20
-9.8169
 30
0.0
 10
-216.6415
 20
-9.8169
 30
0.0
  0
SPLINE
  5
1BE
330
1F
100
AcDbEntity
  8
Layer 1
370
    15
100
AcDbSpline
210
0.0
220
0.0
230
1.0
 70
    24
 71
     3
 72
     8
 73
     4
 74
     0
 42
0.0000000001
 43
0.0000000001
 12
1.0
 22
0.0
 32
0.0
 13
1.0
 23
0.0
 33
0.0
 40
0.0
 40
0.0
 40
0.0
 40
0.0
 40
1.0
 40
1.0
 40
1.0
 40
1.0
 10
-216.6415
 20
-9.8169
 30
0.0
 10
-216.6415
 20
-9.8169
 30
0.0
 10
-221.4533
 20
-9.8169
 30
0.0
 10
-221.4533
 20
-9.8169
 30
0.0
  0
SPLINE
  5
1BF
330
1F
100
AcDbEntity
  8
Layer 1
370
    15
100
AcDbSpline
210
0.0
220
0.0
230
1.0
 70
     8
 71
     3
 72
    12
 73
     8
 74
     0
 42
0.0000000001
 43
0.0000000001
 12
1.0
 22
0.0
 32
0.0
 13
1.0
 23
0.0
 33
0.0
 40
0.0
 40
0.0
 40
0.0
 40
0.0
 40
0.3333333333333333
 40
0.3333333333333333
 40
0.3333333333333333
 40
0.3333333333333333
 40
1.0
 40
1.0
 40
1.0
 40
1.0
 10
-235.4533
 20
4.1831
 30
0.0
 10
-235.4533
 20
0.4701
 30
0.0
 10
-233.9783
 20
-3.0909
 30
0.0
 10
-231.3528
 20
-5.7164
 30
0.0
 10
-231.3528
 20
-5.7164
 30
0.0
 10
-228.7273
 20
-8.3419
 30
0.0
 10
-225.1663
 20
-9.8169
 30
0.0
 10
-221.4533
 20
-9.8169
 30
0.0
  0
SPLINE
  5
1C0
330
1F
100
AcDbEntity
  8
Layer 1
370
    15
100
AcDbSpline
210
0.0
220
0.0
230
1.0
 70
    24
 71
     3
 72
     8
 73
     4
 74
     0
 42
0.0000000001
 43
0.0000000001
 12
1.0
 22
0.0
 32
0.0
 13
1.0
 23
0.0
 33
0.0
 40
0.0
 40
0.0
 40
0.0
 40
0.0
 40
1.0
 40
1.0
 40
1.0
 40
1.0
 10
-235.4533
 20
4.1831
 30
0.0
 10
-235.4533
 20
4.1831
 30
0.0
 10
-235.4533
 20
8.9949
 30
0.0
 10
-235.4533
 20
8.9949
 30
0.0
  0
SPLINE
  5
1C1
330
1F
100
AcDbEntity
  8
Layer 1
370
    15
100
AcDbSpline
210
0.0
220
0.0
230
1.0
 70
     8
 71
     3
 72
     8
 73
     4
 74
     0
 42
0.0000000001
 43
0.0000000001
 12
1.0
 22
0.0
 32
0.0
 13
1.0
 23
0.0
 33
0.0
 40
0.0
 40
0.0
 40
0.0
 40
0.0
 40
1.0
 40
1.0
 40
1.0
 40
1.0
 10
-235.4533
 20
8.9949
 30
0.0
 10
-235.4533
 20
10.0028
 30
0.0
 10
-236.2033
 20
10.8532
 30
0.0
 10
-237.2033
 20
10.9792
 30
0.0
  0
SPLINE
  5
1C2
330
1F
100
AcDbEntity
  8
Layer 1
370
    15
100
AcDbSpline
210
0.0
220
0.0
230
1.0
 70
     8
 71
     3
 72
     8
 73
     4
 74
     0
 42
0.0000000001
 43
0.0000000001
 12
1.0
 22
0.0
 32
0.0
 13
1.0
 23
0.0
 33
0.0
 40
0.0
 40
0.0
 40
0.0
 40
0.0
 40
1.0
 40
1.0
 40
1.0
 40
1.0
 10
-237.2033
 20
10.9792
 30
0.0
 10
-239.3614
 20
11.2511
 30
0.0
 10
-241.5451
 20
11.2511
 30
0.0
 10
-243.7032
 20
10.9792
 30
0.0
  0
SPLINE
  5
1C3
330
1F
100
AcDbEntity
  8
Layer 1
370
    15
100
AcDbSpline
210
0.0
220
0.0
230
1.0
 70
     8
 71
     3
 72
     8
 73
     4
 74
     0
 42
0.0000000001
 43
0.0000000001
 12
1.0
 22
0.0
 32
0.0
 13
1.0
 23
0.0
 33
0.0
 40
0.0
 40
0.0
 40
0.0
 40
0.0
 40
1.0
 40
1.0
 40
1.0
 40
1.0
 10
-243.7033
 20
10.9792
 30
0.0
 10
-244.7033
 20
10.8532
 30
0.0
 10
-245.4533
 20
10.0028
 30
0.0
 10
-245.4533
 20
8.9949
 30
0.0
  0
SPLINE
  5
1C4
330
1F
100
AcDbEntity
  8
Layer 1
370
    15
100
AcDbSpline
210
0.0
220
0.0
230
1.0
 70
    24
 71
     3
 72
     8
 73
     4
 74
     0
 42
0.0000000001
 43
0.0000000001
 12
1.0
 22
0.0
 32
0.0
 13
1.0
 23
0.0
 33
0.0
 40
0.0
 40
0.0
 40
0.0
 40
0.0
 40
1.0
 40
1.0
 40
1.0
 40
1.0
 10
-245.4533
 20
8.9949
 30
0.0
 10
-245.4533
 20
8.9949
 30
0.0
 10
-245.4533
 20
4.1831
 30
0.0
 10
-245.4533
 20
4.1831
 30
0.0
  0
SPLINE
  5
1C5
330
1F
100
AcDbEntity
  8
Layer 1
370
    15
100
AcDbSpline
210
0.0
220
0.0
230
1.0
 70
     8
 71
     3
 72
    12
 73
     8
 74
     0
 42
0.0000000001
 43
0.0000000001
 12
1.0
 22
0.0
 32
0.0
 13
1.0
 23
0.0
 33
0.0
 40
0.0
 40
0.0
 40
0.0
 40
0.0
 40
0.3333333333333333
 40
0.3333333333333333
 40
0.3333333333333333
 40
0.3333333333333333
 40
1.0
 40
1.0
 40
1.0
 40
1.0
 10
-259.4533
 20
-9.8169
 30
0.0
 10
-255.7403
 20
-9.8169
 30
0.0
 10
-252.1793
 20
-8.3419
 30
0.0
 10
-249.5538
 20
-5.7164
 30
0.0
 10
-249.5538
 20
-5.7164
 30
0.0
 10
-246.9283
 20
-3.0909
 30
0.0
 10
-245.4533
 20
0.4701
 30
0.0
 10
-245.4533
 20
4.1831
 30
0.0
  0
SPLINE
  5
1C6
330
1F
100
AcDbEntity
  8
Layer 1
370
    15
100
AcDbSpline
210
0.0
220
0.0
230
1.0
 70
    24
 71
     3
 72
     8
 73
     4
 74
     0
 42
0.0000000001
 43
0.0000000001
 12
1.0
 22
0.0
 32
0.0
 13
1.0
 23
0.0
 33
0.0
 40
0.0
 40
0.0
 40
0.0
 40
0.0
 40
1.0
 40
1.0
 40
1.0
 40
1.0
 10
-259.4533
 20
-9.8169
 30
0.0
 10
-259.4533
 20
-9.8169
 30
0.0
 10
-264.2651
 20
-9.8169
 30
0.0
 10
-264.2651
 20
-9.8169
 30
0.0
  0
SPLINE
  5
1C7
330
1F
100
AcDbEntity
  8
Layer 1
370
    15
100
AcDbSpline
210
0.0
220
0.0
230
1.0
 70
     8
 71
     3
 72
     8
 73
     4
 74
     0
 42
0.0000000001
 43
0.0000000001
 12
1.0
 22
0.0
 32
0.0
 13
1.0
 23
0.0
 33
0.0
 40
0.0
 40
0.0
 40
0.0
 40
0.0
 40
1.0
 40
1.0
 40
1.0
 40
1.0
 10
-264.2651
 20
-9.8169
 30
0.0
 10
-265.273
 20
-9.8169
 30
0.0
 10
-266.1234
 20
-10.5669
 30
0.0
 10
-266.2494
 20
-11.5669
 30
0.0
  0
SPLINE
  5
1C8
330
1F
100
AcDbEntity
  8
Layer 1
370
    15
100
AcDbSpline
210
0.0
220
0.0
230
1.0
 70
     8
 71
     3
 72
     8
 73
     4
 74
     0
 42
0.0000000001
 43
0.0000000001
 12
1.0
 22
0.0
 32
0.0
 13
1.0
 23
0.0
 33
0.0
 40
0.0
 40
0.0
 40
0.0
 40
0.0
 40
1.0
 40
1.0
 40
1.0
 40
1.0
 10
-266.2494
 20
-11.5669
 30
0.0
 10
-266.5213
 20
-13.725
 30
0.0
 10
-266.5213
 20
-15.9088
 30
0.0
 10
-266.2494
 20
-18.0669
 30
0.0
  0
SPLINE
  5
1C9
330
1F
100
AcDbEntity
  8
Layer 1
370
    15
100
AcDbSpline
210
0.0
220
0.0
230
1.0
 70
     8
 71
     3
 72
     8
 73
     4
 74
     0
 42
0.0000000001
 43
0.0000000001
 12
1.0
 22
0.0
 32
0.0
 13
1.0
 23
0.0
 33
0.0
 40
0.0
 40
0.0
 40
0.0
 40
0.0
 40
1.0
 40
1.0
 40
1.0
 40
1.0
 10
-266.2494
 20
-18.0669
 30
0.0
 10
-266.1234
 20
-19.0669
 30
0.0
 10
-265.273
 20
-19.8169
 30
0.0
 10
-264.2651
 20
-19.8169
 30
0.0
  0
SPLINE
  5
1CA
330
1F
100
AcDbEntity
  8
Layer 1
370
    15
100
AcDbSpline
210
0.0
220
0.0
230
1.0
 70
    24
 71
     3
 72
     8
 73
     4
 74
     0
 42
0.0000000001
 43
0.0000000001
 12
1.0
 22
0.0
 32
0.0
 13
1.0
 23
0.0
 33
0.0
 40
0.0
 40
0.0
 40
0.0
 40
0.0
 40
1.0
 40
1.0
 40
1.0
 40
1.0
 10
-264.2651
 20
-19.8169
 30
0.0
 10
-264.2651
 20
-19.8169
 30
0.0
 10
-259.4533
 20
-19.8169
 30
0.0
 10
-259.4533
 20
-19.8169
 30
0.0
  0
SPLINE
  5
1CB
330
1F
100
AcDbEntity
  8
Layer 1
370
    15
100
AcDbSpline
210
0.0
220
0.0
230
1.0
 70
     8
 71
     3
 72
     8
 73
     4
 74
     0
 42
0.0000000001
 43
0.0000000001
 12
1.0
 22
0.0
 32
0.0
 13
1.0
 23
0.0
 33
0.0
 40
0.0
 40
0.0
 40
0.0
 40
0.0
 40
1.0
 40
1.0
 40
1.0
 40
1.0
 10
-245.4533
 20
-33.8169
 30
0.0
 10
-245.4533
 20
-26.0849
 30
0.0
 10
-251.7213
 20
-19.8169
 30
0.0
 10
-259.4532
 20
-19.8169
 30
0.0
  0
SPLINE
  5
1CC
330
1F
100
AcDbEntity
  8
Layer 1
370
    15
100
AcDbSpline
210
0.0
220
0.0
230
1.0
 70
    24
 71
     3
 72
     8
 73
     4
 74
     0
 42
0.0000000001
 43
0.0000000001
 12
1.0
 22
0.0
 32
0.0
 13
1.0
 23
0.0
 33
0.0
 40
0.0
 40
0.0
 40
0.0
 40
0.0
 40
1.0
 40
1.0
 40
1.0
 40
1.0
 10
-245.4533
 20
-33.8169
 30
0.0
 10
-245.4533
 20
-33.8169
 30
0.0
 10
-245.4533
 20
-38.6287
 30
0.0
 10
-245.4533
 20
-38.6287
 30
0.0
  0
SPLINE
  5
1CD
330
1F
100
AcDbEntity
  8
Layer 1
370
    15
100
AcDbSpline
210
0.0
220
0.0
230
1.0
 70
     8
 71
     3
 72
     8
 73
     4
 74
     0
 42
0.0000000001
 43
0.0000000001
 12
1.0
 22
0.0
 32
0.0
 13
1.0
 23
0.0
 33
0.0
 40
0.0
 40
0.0
 40
0.0
 40
0.0
 40
1.0
 40
1.0
 40
1.0
 40
1.0
 10
-245.4533
 20
-38.6287
 30
0.0
 10
-245.4533
 20
-39.6366
 30
0.0
 10
-244.7033
 20
-40.487
 30
0.0
 10
-243.7033
 20
-40.613
 30
0.0
  0
SPLINE
  5
1CE
330
1F
100
AcDbEntity
  8
Layer 1
370
    15
100
AcDbSpline
210
0.0
220
0.0
230
1.0
 70
     8
 71
     3
 72
     8
 73
     4
 74
     0
 42
0.0000000001
 43
0.0000000001
 12
1.0
 22
0.0
 32
0.0
 13
1.0
 23
0.0
 33
0.0
 40
0.0
 40
0.0
 40
0.0
 40
0.0
 40
1.0
 40
1.0
 40
1.0
 40
1.0
 10
-239.4699
 20
-122.0697
 30
0.0
 10
-237.3118
 20
-122.3416
 30
0.0
 10
-235.128
 20
-122.3416
 30
0.0
 10
-232.9699
 20
-122.0697
 30
0.0
  0
SPLINE
  5
1CF
330
1F
100
AcDbEntity
  8
Layer 1
370
    15
100
AcDbSpline
210
0.0
220
0.0
230
1.0
 70
     8
 71
     3
 72
     8
 73
     4
 74
     0
 42
0.0000000001
 43
0.0000000001
 12
1.0
 22
0.0
 32
0.0
 13
1.0
 23
0.0
 33
0.0
 40
0.0
 40
0.0
 40
0.0
 40
0.0
 40
1.0
 40
1.0
 40
1.0
 40
1.0
 10
-232.9699
 20
-122.0697
 30
0.0
 10
-231.9699
 20
-121.9437
 30
0.0
 10
-231.2199
 20
-121.0933
 30
0.0
 10
-231.2199
 20
-120.0854
 30
0.0
  0
SPLINE
  5
1D0
330
1F
100
AcDbEntity
  8
Layer 1
370
    15
100
AcDbSpline
210
0.0
220
0.0
230
1.0
 70
    24
 71
     3
 72
     8
 73
     4
 74
     0
 42
0.0000000001
 43
0.0000000001
 12
1.0
 22
0.0
 32
0.0
 13
1.0
 23
0.0
 33
0.0
 40
0.0
 40
0.0
 40
0.0
 40
0.0
 40
1.0
 40
1.0
 40
1.0
 40
1.0
 10
-231.2199
 20
-120.0854
 30
0.0
 10
-231.2199
 20
-120.0854
 30
0.0
 10
-231.2199
 20
-115.2736
 30
0.0
 10
-231.2199
 20
-115.2736
 30
0.0
  0
SPLINE
  5
1D1
330
1F
100
AcDbEntity
  8
Layer 1
370
    15
100
AcDbSpline
210
0.0
220
0.0
230
1.0
 70
     8
 71
     3
 72
    12
 73
     8
 74
     0
 42
0.0000000001
 43
0.0000000001
 12
1.0
 22
0.0
 32
0.0
 13
1.0
 23
0.0
 33
0.0
 40
0.0
 40
0.0
 40
0.0
 40
0.0
 40
0.3333333333333333
 40
0.3333333333333333
 40
0.3333333333333333
 40
0.3333333333333333
 40
1.0
 40
1.0
 40
1.0
 40
1.0
 10
-217.2199
 20
-101.2736
 30
0.0
 10
-220.9329
 20
-101.2736
 30
0.0
 10
-224.4939
 20
-102.7486
 30
0.0
 10
-227.1194
 20
-105.3741
 30
0.0
 10
-227.1194
 20
-105.3741
 30
0.0
 10
-229.7449
 20
-107.9996
 30
0.0
 10
-231.2199
 20
-111.5606
 30
0.0
 10
-231.2199
 20
-115.2736
 30
0.0
  0
SPLINE
  5
1D2
330
1F
100
AcDbEntity
  8
Layer 1
370
    15
100
AcDbSpline
210
0.0
220
0.0
230
1.0
 70
    24
 71
     3
 72
     8
 73
     4
 74
     0
 42
0.0000000001
 43
0.0000000001
 12
1.0
 22
0.0
 32
0.0
 13
1.0
 23
0.0
 33
0.0
 40
0.0
 40
0.0
 40
0.0
 40
0.0
 40
1.0
 40
1.0
 40
1.0
 40
1.0
 10
-217.2199
 20
-101.2736
 30
0.0
 10
-217.2199
 20
-101.2736
 30
0.0
 10
-212.4081
 20
-101.2736
 30
0.0
 10
-212.4081
 20
-101.2736
 30
0.0
  0
SPLINE
  5
1D3
330
1F
100
AcDbEntity
  8
Layer 1
370
    15
100
AcDbSpline
210
0.0
220
0.0
230
1.0
 70
     8
 71
     3
 72
     8
 73
     4
 74
     0
 42
0.0000000001
 43
0.0000000001
 12
1.0
 22
0.0
 32
0.0
 13
1.0
 23
0.0
 33
0.0
 40
0.0
 40
0.0
 40
0.0
 40
0.0
 40
1.0
 40
1.0
 40
1.0
 40
1.0
 10
-212.4081
 20
-101.2736
 30
0.0
 10
-211.4002
 20
-101.2736
 30
0.0
 10
-210.5498
 20
-100.5236
 30
0.0
 10
-210.4238
 20
-99.5236
 30
0.0
  0
SPLINE
  5
1D4
330
1F
100
AcDbEntity
  8
Layer 1
370
    15
100
AcDbSpline
210
0.0
220
0.0
230
1.0
 70
     8
 71
     3
 72
     8
 73
     4
 74
     0
 42
0.0000000001
 43
0.0000000001
 12
1.0
 22
0.0
 32
0.0
 13
1.0
 23
0.0
 33
0.0
 40
0.0
 40
0.0
 40
0.0
 40
0.0
 40
1.0
 40
1.0
 40
1.0
 40
1.0
 10
-210.4238
 20
-99.5236
 30
0.0
 10
-210.1519
 20
-97.3655
 30
0.0
 10
-210.1519
 20
-95.1817
 30
0.0
 10
-210.4238
 20
-93.0236
 30
0.0
  0
SPLINE
  5
1D5
330
1F
100
AcDbEntity
  8
Layer 1
370
    15
100
AcDbSpline
210
0.0
220
0.0
230
1.0
 70
     8
 71
     3
 72
     8
 73
     4
 74
     0
 42
0.0000000001
 43
0.0000000001
 12
1.0
 22
0.0
 32
0.0
 13
1.0
 23
0.0
 33
0.0
 40
0.0
 40
0.0
 40
0.0
 40
0.0
 40
1.0
 40
1.0
 40
1.0
 40
1.0
 10
-210.4238
 20
-93.0236
 30
0.0
 10
-210.5498
 20
-92.0236
 30
0.0
 10
-211.4002
 20
-91.2736
 30
0.0
 10
-212.4081
 20
-91.2736
 30
0.0
  0
SPLINE
  5
1D6
330
1F
100
AcDbEntity
  8
Layer 1
370
    15
100
AcDbSpline
210
0.0
220
0.0
230
1.0
 70
    24
 71
     3
 72
     8
 73
     4
 74
     0
 42
0.0000000001
 43
0.0000000001
 12
1.0
 22
0.0
 32
0.0
 13
1.0
 23
0.0
 33
0.0
 40
0.0
 40
0.0
 40
0.0
 40
0.0
 40
1.0
 40
1.0
 40
1.0
 40
1.0
 10
-212.4081
 20
-91.2736
 30
0.0
 10
-212.4081
 20
-91.2736
 30
0.0
 10
-217.2199
 20
-91.2736
 30
0.0
 10
-217.2199
 20
-91.2736
 30
0.0
  0
SPLINE
  5
1D7
330
1F
100
AcDbEntity
  8
Layer 1
370
    15
100
AcDbSpline
210
0.0
220
0.0
230
1.0
 70
     8
 71
     3
 72
    12
 73
     8
 74
     0
 42
0.0000000001
 43
0.0000000001
 12
1.0
 22
0.0
 32
0.0
 13
1.0
 23
0.0
 33
0.0
 40
0.0
 40
0.0
 40
0.0
 40
0.0
 40
0.3333333333333333
 40
0.3333333333333333
 40
0.3333333333333333
 40
0.3333333333333333
 40
1.0
 40
1.0
 40
1.0
 40
1.0
 10
-231.2199
 20
-77.2736
 30
0.0
 10
-231.2199
 20
-80.9866
 30
0.0
 10
-229.7449
 20
-84.5476
 30
0.0
 10
-227.1194
 20
-87.1731
 30
0.0
 10
-227.1194
 20
-87.1731
 30
0.0
 10
-224.4939
 20
-89.7986
 30
0.0
 10
-220.9329
 20
-91.2736
 30
0.0
 10
-217.2199
 20
-91.2736
 30
0.0
  0
SPLINE
  5
1D8
330
1F
100
AcDbEntity
  8
Layer 1
370
    15
100
AcDbSpline
210
0.0
220
0.0
230
1.0
 70
    24
 71
     3
 72
     8
 73
     4
 74
     0
 42
0.0000000001
 43
0.0000000001
 12
1.0
 22
0.0
 32
0.0
 13
1.0
 23
0.0
 33
0.0
 40
0.0
 40
0.0
 40
0.0
 40
0.0
 40
1.0
 40
1.0
 40
1.0
 40
1.0
 10
-231.2199
 20
-77.2736
 30
0.0
 10
-231.2199
 20
-77.2736
 30
0.0
 10
-231.2199
 20
-72.4618
 30
0.0
 10
-231.2199
 20
-72.4618
 30
0.0
  0
SPLINE
  5
1D9
330
1F
100
AcDbEntity
  8
Layer 1
370
    15
100
AcDbSpline
210
0.0
220
0.0
230
1.0
 70
     8
 71
     3
 72
     8
 73
     4
 74
     0
 42
0.0000000001
 43
0.0000000001
 12
1.0
 22
0.0
 32
0.0
 13
1.0
 23
0.0
 33
0.0
 40
0.0
 40
0.0
 40
0.0
 40
0.0
 40
1.0
 40
1.0
 40
1.0
 40
1.0
 10
-231.2199
 20
-72.4618
 30
0.0
 10
-231.2199
 20
-71.4539
 30
0.0
 10
-231.9699
 20
-70.6035
 30
0.0
 10
-232.9699
 20
-70.4775
 30
0.0
  0
SPLINE
  5
1DA
330
1F
100
AcDbEntity
  8
Layer 1
370
    15
100
AcDbSpline
210
0.0
220
0.0
230
1.0
 70
     8
 71
     3
 72
     8
 73
     4
 74
     0
 42
0.0000000001
 43
0.0000000001
 12
1.0
 22
0.0
 32
0.0
 13
1.0
 23
0.0
 33
0.0
 40
0.0
 40
0.0
 40
0.0
 40
0.0
 40
1.0
 40
1.0
 40
1.0
 40
1.0
 10
-232.9699
 20
-70.4775
 30
0.0
 10
-235.128
 20
-70.2056
 30
0.0
 10
-237.3117
 20
-70.2056
 30
0.0
 10
-239.4698
 20
-70.4775
 30
0.0
  0
SPLINE
  5
1DB
330
1F
100
AcDbEntity
  8
Layer 1
370
    15
100
AcDbSpline
210
0.0
220
0.0
230
1.0
 70
     8
 71
     3
 72
     8
 73
     4
 74
     0
 42
0.0000000001
 43
0.0000000001
 12
1.0
 22
0.0
 32
0.0
 13
1.0
 23
0.0
 33
0.0
 40
0.0
 40
0.0
 40
0.0
 40
0.0
 40
1.0
 40
1.0
 40
1.0
 40
1.0
 10
-239.4699
 20
-70.4775
 30
0.0
 10
-240.4699
 20
-70.6035
 30
0.0
 10
-241.2199
 20
-71.4539
 30
0.0
 10
-241.2199
 20
-72.4618
 30
0.0
  0
SPLINE
  5
1DC
330
1F
100
AcDbEntity
  8
Layer 1
370
    15
100
AcDbSpline
210
0.0
220
0.0
230
1.0
 70
    24
 71
     3
 72
     8
 73
     4
 74
     0
 42
0.0000000001
 43
0.0000000001
 12
1.0
 22
0.0
 32
0.0
 13
1.0
 23
0.0
 33
0.0
 40
0.0
 40
0.0
 40
0.0
 40
0.0
 40
1.0
 40
1.0
 40
1.0
 40
1.0
 10
-241.2199
 20
-72.4618
 30
0.0
 10
-241.2199
 20
-72.4618
 30
0.0
 10
-241.2199
 20
-77.2736
 30
0.0
 10
-241.2199
 20
-77.2736
 30
0.0
  0
SPLINE
  5
1DD
330
1F
100
AcDbEntity
  8
Layer 1
370
    15
100
AcDbSpline
210
0.0
220
0.0
230
1.0
 70
     8
 71
     3
 72
    12
 73
     8
 74
     0
 42
0.0000000001
 43
0.0000000001
 12
1.0
 22
0.0
 32
0.0
 13
1.0
 23
0.0
 33
0.0
 40
0.0
 40
0.0
 40
0.0
 40
0.0
 40
0.3333333333333333
 40
0.3333333333333333
 40
0.3333333333333333
 40
0.3333333333333333
 40
1.0
 40
1.0
 40
1.0
 40
1.0
 10
-255.2199
 20
-91.2736
 30
0.0
 10
-251.5069
 20
-91.2736
 30
0.0
 10
-247.9459
 20
-89.7986
 30
0.0
 10
-245.3204
 20
-87.1731
 30
0.0
 10
-245.3204
 20
-87.1731
 30
0.0
 10
-242.6949
 20
-84.5476
 30
0.0
 10
-241.2199
 20
-80.9866
 30
0.0
 10
-241.2199
 20
-77.2736
 30
0.0
  0
SPLINE
  5
1DE
330
1F
100
AcDbEntity
  8
Layer 1
370
    15
100
AcDbSpline
210
0.0
220
0.0
230
1.0
 70
    24
 71
     3
 72
     8
 73
     4
 74
     0
 42
0.0000000001
 43
0.0000000001
 12
1.0
 22
0.0
 32
0.0
 13
1.0
 23
0.0
 33
0.0
 40
0.0
 40
0.0
 40
0.0
 40
0.0
 40
1.0
 40
1.0
 40
1.0
 40
1.0
 10
-255.2199
 20
-91.2736
 30
0.0
 10
-255.2199
 20
-91.2736
 30
0.0
 10
-260.0317
 20
-91.2736
 30
0.0
 10
-260.0317
 20
-91.2736
 30
0.0
  0
SPLINE
  5
1DF
330
1F
100
AcDbEntity
  8
Layer 1
370
    15
100
AcDbSpline
210
0.0
220
0.0
230
1.0
 70
     8
 71
     3
 72
     8
 73
     4
 74
     0
 42
0.0000000001
 43
0.0000000001
 12
1.0
 22
0.0
 32
0.0
 13
1.0
 23
0.0
 33
0.0
 40
0.0
 40
0.0
 40
0.0
 40
0.0
 40
1.0
 40
1.0
 40
1.0
 40
1.0
 10
-260.0317
 20
-91.2736
 30
0.0
 10
-261.0396
 20
-91.2736
 30
0.0
 10
-261.89
 20
-92.0236
 30
0.0
 10
-262.016
 20
-93.0236
 30
0.0
  0
SPLINE
  5
1E0
330
1F
100
AcDbEntity
  8
Layer 1
370
    15
100
AcDbSpline
210
0.0
220
0.0
230
1.0
 70
     8
 71
     3
 72
     8
 73
     4
 74
     0
 42
0.0000000001
 43
0.0000000001
 12
1.0
 22
0.0
 32
0.0
 13
1.0
 23
0.0
 33
0.0
 40
0.0
 40
0.0
 40
0.0
 40
0.0
 40
1.0
 40
1.0
 40
1.0
 40
1.0
 10
-262.016
 20
-93.0236
 30
0.0
 10
-262.2879
 20
-95.1817
 30
0.0
 10
-262.2879
 20
-97.3655
 30
0.0
 10
-262.016
 20
-99.5236
 30
0.0
  0
SPLINE
  5
1E1
330
1F
100
AcDbEntity
  8
Layer 1
370
    15
100
AcDbSpline
210
0.0
220
0.0
230
1.0
 70
     8
 71
     3
 72
     8
 73
     4
 74
     0
 42
0.0000000001
 43
0.0000000001
 12
1.0
 22
0.0
 32
0.0
 13
1.0
 23
0.0
 33
0.0
 40
0.0
 40
0.0
 40
0.0
 40
0.0
 40
1.0
 40
1.0
 40
1.0
 40
1.0
 10
-262.016
 20
-99.5236
 30
0.0
 10
-261.89
 20
-100.5236
 30
0.0
 10
-261.0396
 20
-101.2736
 30
0.0
 10
-260.0317
 20
-101.2736
 30
0.0
  0
SPLINE
  5
1E2
330
1F
100
AcDbEntity
  8
Layer 1
370
    15
100
AcDbSpline
210
0.0
220
0.0
230
1.0
 70
    24
 71
     3
 72
     8
 73
     4
 74
     0
 42
0.0000000001
 43
0.0000000001
 12
1.0
 22
0.0
 32
0.0
 13
1.0
 23
0.0
 33
0.0
 40
0.0
 40
0.0
 40
0.0
 40
0.0
 40
1.0
 40
1.0
 40
1.0
 40
1.0
 10
-260.0317
 20
-101.2736
 30
0.0
 10
-260.0317
 20
-101.2736
 30
0.0
 10
-255.2199
 20
-101.2736
 30
0.0
 10
-255.2199
 20
-101.2736
 30
0.0
  0
SPLINE
  5
1E3
330
1F
100
AcDbEntity
  8
Layer 1
370
    15
100
AcDbSpline
210
0.0
220
0.0
230
1.0
 70
     8
 71
     3
 72
     8
 73
     4
 74
     0
 42
0.0000000001
 43
0.0000000001
 12
1.0
 22
0.0
 32
0.0
 13
1.0
 23
0.0
 33
0.0
 40
0.0
 40
0.0
 40
0.0
 40
0.0
 40
1.0
 40
1.0
 40
1.0
 40
1.0
 10
-241.2199
 20
-115.2736
 30
0.0
 10
-241.2199
 20
-107.5416
 30
0.0
 10
-247.4879
 20
-101.2736
 30
0.0
 10
-255.2198
 20
-101.2736
 30
0.0
  0
SPLINE
  5
1E4
330
1F
100
AcDbEntity
  8
Layer 1
370
    15
100
AcDbSpline
210
0.0
220
0.0
230
1.0
 70
    24
 71
     3
 72
     8
 73
     4
 74
     0
 42
0.0000000001
 43
0.0000000001
 12
1.0
 22
0.0
 32
0.0
 13
1.0
 23
0.0
 33
0.0
 40
0.0
 40
0.0
 40
0.0
 40
0.0
 40
1.0
 40
1.0
 40
1.0
 40
1.0
 10
-241.2199
 20
-115.2736
 30
0.0
 10
-241.2199
 20
-115.2736
 30
0.0
 10
-241.2199
 20
-120.0854
 30
0.0
 10
-241.2199
 20
-120.0854
 30
0.0
  0
SPLINE
  5
1E5
330
1F
100
AcDbEntity
  8
Layer 1
370
    15
100
AcDbSpline
210
0.0
220
0.0
230
1.0
 70
     8
 71
     3
 72
     8
 73
     4
 74
     0
 42
0.0000000001
 43
0.0000000001
 12
1.0
 22
0.0
 32
0.0
 13
1.0
 23
0.0
 33
0.0
 40
0.0
 40
0.0
 40
0.0
 40
0.0
 40
1.0
 40
1.0
 40
1.0
 40
1.0
 10
-241.2199
 20
-120.0854
 30
0.0
 10
-241.2199
 20
-121.0933
 30
0.0
 10
-240.4699
 20
-121.9437
 30
0.0
 10
-239.4699
 20
-122.0697
 30
0.0
  0
SPLINE
  5
1E6
330
1F
100
AcDbEntity
  8
Layer 1
370
    15
100
AcDbSpline
210
0.0
220
0.0
230
1.0
 70
     8
 71
     3
 72
     8
 73
     4
 74
     0
 42
0.0000000001
 43
0.0000000001
 12
1.0
 22
0.0
 32
0.0
 13
1.0
 23
0.0
 33
0.0
 40
0.0
 40
0.0
 40
0.0
 40
0.0
 40
1.0
 40
1.0
 40
1.0
 40
1.0
 10
-262.34
 20
-1.4031
 30
0.0
 10
-264.4981
 20
-1.675
 30
0.0
 10
-266.6819
 20
-1.675
 30
0.0
 10
-268.84
 20
-1.4031
 30
0.0
  0
SPLINE
  5
1E7
330
1F
100
AcDbEntity
  8
Layer 1
370
    15
100
AcDbSpline
210
0.0
220
0.0
230
1.0
 70
     8
 71
     3
 72
     8
 73
     4
 74
     0
 42
0.0000000001
 43
0.0000000001
 12
1.0
 22
0.0
 32
0.0
 13
1.0
 23
0.0
 33
0.0
 40
0.0
 40
0.0
 40
0.0
 40
0.0
 40
1.0
 40
1.0
 40
1.0
 40
1.0
 10
-268.84
 20
-1.4031
 30
0.0
 10
-269.84
 20
-1.2771
 30
0.0
 10
-270.59
 20
-0.4267
 30
0.0
 10
-270.59
 20
0.5812
 30
0.0
  0
SPLINE
  5
1E8
330
1F
100
AcDbEntity
  8
Layer 1
370
    15
100
AcDbSpline
210
0.0
220
0.0
230
1.0
 70
    24
 71
     3
 72
     8
 73
     4
 74
     0
 42
0.0000000001
 43
0.0000000001
 12
1.0
 22
0.0
 32
0.0
 13
1.0
 23
0.0
 33
0.0
 40
0.0
 40
0.0
 40
0.0
 40
0.0
 40
1.0
 40
1.0
 40
1.0
 40
1.0
 10
-270.59
 20
0.5812
 30
0.0
 10
-270.59
 20
0.5812
 30
0.0
 10
-270.59
 20
5.393
 30
0.0
 10
-270.59
 20
5.393
 30
0.0
  0
SPLINE
  5
1E9
330
1F
100
AcDbEntity
  8
Layer 1
370
    15
100
AcDbSpline
210
0.0
220
0.0
230
1.0
 70
     8
 71
     3
 72
    12
 73
     8
 74
     0
 42
0.0000000001
 43
0.0000000001
 12
1.0
 22
0.0
 32
0.0
 13
1.0
 23
0.0
 33
0.0
 40
0.0
 40
0.0
 40
0.0
 40
0.0
 40
0.3333333333333333
 40
0.3333333333333333
 40
0.3333333333333333
 40
0.3333333333333333
 40
1.0
 40
1.0
 40
1.0
 40
1.0
 10
-284.59
 20
19.393
 30
0.0
 10
-280.877
 20
19.393
 30
0.0
 10
-277.316
 20
17.918
 30
0.0
 10
-274.6905
 20
15.2925
 30
0.0
 10
-274.6905
 20
15.2925
 30
0.0
 10
-272.065
 20
12.667
 30
0.0
 10
-270.59
 20
9.106
 30
0.0
 10
-270.59
 20
5.393
 30
0.0
  0
SPLINE
  5
1EA
330
1F
100
AcDbEntity
  8
Layer 1
370
    15
100
AcDbSpline
210
0.0
220
0.0
230
1.0
 70
    24
 71
     3
 72
     8
 73
     4
 74
     0
 42
0.0000000001
 43
0.0000000001
 12
1.0
 22
0.0
 32
0.0
 13
1.0
 23
0.0
 33
0.0
 40
0.0
 40
0.0
 40
0.0
 40
0.0
 40
1.0
 40
1.0
 40
1.0
 40
1.0
 10
-284.59
 20
19.393
 30
0.0
 10
-284.59
 20
19.393
 30
0.0
 10
-289.4018
 20
19.393
 30
0.0
 10
-289.4018
 20
19.393
 30
0.0
  0
SPLINE
  5
1EB
330
1F
100
AcDbEntity
  8
Layer 1
370
    15
100
AcDbSpline
210
0.0
220
0.0
230
1.0
 70
     8
 71
     3
 72
     8
 73
     4
 74
     0
 42
0.0000000001
 43
0.0000000001
 12
1.0
 22
0.0
 32
0.0
 13
1.0
 23
0.0
 33
0.0
 40
0.0
 40
0.0
 40
0.0
 40
0.0
 40
1.0
 40
1.0
 40
1.0
 40
1.0
 10
-289.4018
 20
19.393
 30
0.0
 10
-290.4097
 20
19.393
 30
0.0
 10
-291.2601
 20
20.143
 30
0.0
 10
-291.3861
 20
21.143
 30
0.0
  0
SPLINE
  5
1EC
330
1F
100
AcDbEntity
  8
Layer 1
370
    15
100
AcDbSpline
210
0.0
220
0.0
230
1.0
 70
     8
 71
     3
 72
     8
 73
     4
 74
     0
 42
0.0000000001
 43
0.0000000001
 12
1.0
 22
0.0
 32
0.0
 13
1.0
 23
0.0
 33
0.0
 40
0.0
 40
0.0
 40
0.0
 40
0.0
 40
1.0
 40
1.0
 40
1.0
 40
1.0
 10
-291.3861
 20
21.143
 30
0.0
 10
-291.658
 20
23.3011
 30
0.0
 10
-291.658
 20
25.4849
 30
0.0
 10
-291.3861
 20
27.643
 30
0.0
  0
SPLINE
  5
1ED
330
1F
100
AcDbEntity
  8
Layer 1
370
    15
100
AcDbSpline
210
0.0
220
0.0
230
1.0
 70
     8
 71
     3
 72
     8
 73
     4
 74
     0
 42
0.0000000001
 43
0.0000000001
 12
1.0
 22
0.0
 32
0.0
 13
1.0
 23
0.0
 33
0.0
 40
0.0
 40
0.0
 40
0.0
 40
0.0
 40
1.0
 40
1.0
 40
1.0
 40
1.0
 10
-291.3861
 20
27.643
 30
0.0
 10
-291.2601
 20
28.643
 30
0.0
 10
-290.4097
 20
29.393
 30
0.0
 10
-289.4018
 20
29.393
 30
0.0
  0
SPLINE
  5
1EE
330
1F
100
AcDbEntity
  8
Layer 1
370
    15
100
AcDbSpline
210
0.0
220
0.0
230
1.0
 70
    24
 71
     3
 72
     8
 73
     4
 74
     0
 42
0.0000000001
 43
0.0000000001
 12
1.0
 22
0.0
 32
0.0
 13
1.0
 23
0.0
 33
0.0
 40
0.0
 40
0.0
 40
0.0
 40
0.0
 40
1.0
 40
1.0
 40
1.0
 40
1.0
 10
-289.4018
 20
29.393
 30
0.0
 10
-289.4018
 20
29.393
 30
0.0
 10
-284.59
 20
29.393
 30
0.0
 10
-284.59
 20
29.393
 30
0.0
  0
SPLINE
  5
1EF
330
1F
100
AcDbEntity
  8
Layer 1
370
    15
100
AcDbSpline
210
0.0
220
0.0
230
1.0
 70
     8
 71
     3
 72
    12
 73
     8
 74
     0
 42
0.0000000001
 43
0.0000000001
 12
1.0
 22
0.0
 32
0.0
 13
1.0
 23
0.0
 33
0.0
 40
0.0
 40
0.0
 40
0.0
 40
0.0
 40
0.3333333333333333
 40
0.3333333333333333
 40
0.3333333333333333
 40
0.3333333333333333
 40
1.0
 40
1.0
 40
1.0
 40
1.0
 10
-270.59
 20
43.393
 30
0.0
 10
-270.59
 20
39.68
 30
0.0
 10
-272.065
 20
36.119
 30
0.0
 10
-274.6905
 20
33.4935
 30
0.0
 10
-274.6905
 20
33.4935
 30
0.0
 10
-277.316
 20
30.868
 30
0.0
 10
-280.877
 20
29.393
 30
0.0
 10
-284.59
 20
29.393
 30
0.0
  0
SPLINE
  5
1F0
330
1F
100
AcDbEntity
  8
Layer 1
370
    15
100
AcDbSpline
210
0.0
220
0.0
230
1.0
 70
    24
 71
     3
 72
     8
 73
     4
 74
     0
 42
0.0000000001
 43
0.0000000001
 12
1.0
 22
0.0
 32
0.0
 13
1.0
 23
0.0
 33
0.0
 40
0.0
 40
0.0
 40
0.0
 40
0.0
 40
1.0
 40
1.0
 40
1.0
 40
1.0
 10
-270.59
 20
43.393
 30
0.0
 10
-270.59
 20
43.393
 30
0.0
 10
-270.59
 20
48.2048
 30
0.0
 10
-270.59
 20
48.2048
 30
0.0
  0
SPLINE
  5
1F1
330
1F
100
AcDbEntity
  8
Layer 1
370
    15
100
AcDbSpline
210
0.0
220
0.0
230
1.0
 70
     8
 71
     3
 72
     8
 73
     4
 74
     0
 42
0.0000000001
 43
0.0000000001
 12
1.0
 22
0.0
 32
0.0
 13
1.0
 23
0.0
 33
0.0
 40
0.0
 40
0.0
 40
0.0
 40
0.0
 40
1.0
 40
1.0
 40
1.0
 40
1.0
 10
-270.59
 20
48.2048
 30
0.0
 10
-270.59
 20
49.2127
 30
0.0
 10
-269.84
 20
50.0631
 30
0.0
 10
-268.84
 20
50.1891
 30
0.0
  0
SPLINE
  5
1F2
330
1F
100
AcDbEntity
  8
Layer 1
370
    15
100
AcDbSpline
210
0.0
220
0.0
230
1.0
 70
     8
 71
     3
 72
     8
 73
     4
 74
     0
 42
0.0000000001
 43
0.0000000001
 12
1.0
 22
0.0
 32
0.0
 13
1.0
 23
0.0
 33
0.0
 40
0.0
 40
0.0
 40
0.0
 40
0.0
 40
1.0
 40
1.0
 40
1.0
 40
1.0
 10
-268.84
 20
50.1891
 30
0.0
 10
-266.6819
 20
50.461
 30
0.0
 10
-264.4982
 20
50.461
 30
0.0
 10
-262.3401
 20
50.1891
 30
0.0
  0
SPLINE
  5
1F3
330
1F
100
AcDbEntity
  8
Layer 1
370
    15
100
AcDbSpline
210
0.0
220
0.0
230
1.0
 70
     8
 71
     3
 72
     8
 73
     4
 74
     0
 42
0.0000000001
 43
0.0000000001
 12
1.0
 22
0.0
 32
0.0
 13
1.0
 23
0.0
 33
0.0
 40
0.0
 40
0.0
 40
0.0
 40
0.0
 40
1.0
 40
1.0
 40
1.0
 40
1.0
 10
-262.34
 20
50.1891
 30
0.0
 10
-261.34
 20
50.0631
 30
0.0
 10
-260.59
 20
49.2127
 30
0.0
 10
-260.59
 20
48.2048
 30
0.0
  0
SPLINE
  5
1F4
330
1F
100
AcDbEntity
  8
Layer 1
370
    15
100
AcDbSpline
210
0.0
220
0.0
230
1.0
 70
    24
 71
     3
 72
     8
 73
     4
 74
     0
 42
0.0000000001
 43
0.0000000001
 12
1.0
 22
0.0
 32
0.0
 13
1.0
 23
0.0
 33
0.0
 40
0.0
 40
0.0
 40
0.0
 40
0.0
 40
1.0
 40
1.0
 40
1.0
 40
1.0
 10
-260.59
 20
48.2048
 30
0.0
 10
-260.59
 20
48.2048
 30
0.0
 10
-260.59
 20
43.393
 30
0.0
 10
-260.59
 20
43.393
 30
0.0
  0
SPLINE
  5
1F5
330
1F
100
AcDbEntity
  8
Layer 1
370
    15
100
AcDbSpline
210
0.0
220
0.0
230
1.0
 70
     8
 71
     3
 72
    12
 73
     8
 74
     0
 42
0.0000000001
 43
0.0000000001
 12
1.0
 22
0.0
 32
0.0
 13
1.0
 23
0.0
 33
0.0
 40
0.0
 40
0.0
 40
0.0
 40
0.0
 40
0.3333333333333333
 40
0.3333333333333333
 40
0.3333333333333333
 40
0.3333333333333333
 40
1.0
 40
1.0
 40
1.0
 40
1.0
 10
-246.59
 20
29.393
 30
0.0
 10
-250.303
 20
29.393
 30
0.0
 10
-253.864
 20
30.868
 30
0.0
 10
-256.4895
 20
33.4935
 30
0.0
 10
-256.4895
 20
33.4935
 30
0.0
 10
-259.115
 20
36.119
 30
0.0
 10
-260.59
 20
39.68
 30
0.0
 10
-260.59
 20
43.393
 30
0.0
  0
SPLINE
  5
1F6
330
1F
100
AcDbEntity
  8
Layer 1
370
    15
100
AcDbSpline
210
0.0
220
0.0
230
1.0
 70
    24
 71
     3
 72
     8
 73
     4
 74
     0
 42
0.0000000001
 43
0.0000000001
 12
1.0
 22
0.0
 32
0.0
 13
1.0
 23
0.0
 33
0.0
 40
0.0
 40
0.0
 40
0.0
 40
0.0
 40
1.0
 40
1.0
 40
1.0
 40
1.0
 10
-246.59
 20
29.393
 30
0.0
 10
-246.59
 20
29.393
 30
0.0
 10
-241.7782
 20
29.393
 30
0.0
 10
-241.7782
 20
29.393
 30
0.0
  0
SPLINE
  5
1F7
330
1F
100
AcDbEntity
  8
Layer 1
370
    15
100
AcDbSpline
210
0.0
220
0.0
230
1.0
 70
     8
 71
     3
 72
     8
 73
     4
 74
     0
 42
0.0000000001
 43
0.0000000001
 12
1.0
 22
0.0
 32
0.0
 13
1.0
 23
0.0
 33
0.0
 40
0.0
 40
0.0
 40
0.0
 40
0.0
 40
1.0
 40
1.0
 40
1.0
 40
1.0
 10
-241.7782
 20
29.393
 30
0.0
 10
-240.7703
 20
29.393
 30
0.0
 10
-239.9199
 20
28.643
 30
0.0
 10
-239.7939
 20
27.643
 30
0.0
  0
SPLINE
  5
1F8
330
1F
100
AcDbEntity
  8
Layer 1
370
    15
100
AcDbSpline
210
0.0
220
0.0
230
1.0
 70
     8
 71
     3
 72
     8
 73
     4
 74
     0
 42
0.0000000001
 43
0.0000000001
 12
1.0
 22
0.0
 32
0.0
 13
1.0
 23
0.0
 33
0.0
 40
0.0
 40
0.0
 40
0.0
 40
0.0
 40
1.0
 40
1.0
 40
1.0
 40
1.0
 10
-239.7939
 20
27.643
 30
0.0
 10
-239.522
 20
25.4849
 30
0.0
 10
-239.522
 20
23.3011
 30
0.0
 10
-239.7939
 20
21.143
 30
0.0
  0
SPLINE
  5
1F9
330
1F
100
AcDbEntity
  8
Layer 1
370
    15
100
AcDbSpline
210
0.0
220
0.0
230
1.0
 70
     8
 71
     3
 72
     8
 73
     4
 74
     0
 42
0.0000000001
 43
0.0000000001
 12
1.0
 22
0.0
 32
0.0
 13
1.0
 23
0.0
 33
0.0
 40
0.0
 40
0.0
 40
0.0
 40
0.0
 40
1.0
 40
1.0
 40
1.0
 40
1.0
 10
-239.7939
 20
21.143
 30
0.0
 10
-239.9199
 20
20.143
 30
0.0
 10
-240.7703
 20
19.393
 30
0.0
 10
-241.7782
 20
19.393
 30
0.0
  0
SPLINE
  5
1FA
330
1F
100
AcDbEntity
  8
Layer 1
370
    15
100
AcDbSpline
210
0.0
220
0.0
230
1.0
 70
    24
 71
     3
 72
     8
 73
     4
 74
     0
 42
0.0000000001
 43
0.0000000001
 12
1.0
 22
0.0
 32
0.0
 13
1.0
 23
0.0
 33
0.0
 40
0.0
 40
0.0
 40
0.0
 40
0.0
 40
1.0
 40
1.0
 40
1.0
 40
1.0
 10
-241.7782
 20
19.393
 30
0.0
 10
-241.7782
 20
19.393
 30
0.0
 10
-246.59
 20
19.393
 30
0.0
 10
-246.59
 20
19.393
 30
0.0
  0
SPLINE
  5
1FB
330
1F
100
AcDbEntity
  8
Layer 1
370
    15
100
AcDbSpline
210
0.0
220
0.0
230
1.0
 70
     8
 71
     3
 72
     8
 73
     4
 74
     0
 42
0.0000000001
 43
0.0000000001
 12
1.0
 22
0.0
 32
0.0
 13
1.0
 23
0.0
 33
0.0
 40
0.0
 40
0.0
 40
0.0
 40
0.0
 40
1.0
 40
1.0
 40
1.0
 40
1.0
 10
-260.59
 20
5.393
 30
0.0
 10
-260.59
 20
13.125
 30
0.0
 10
-254.322
 20
19.393
 30
0.0
 10
-246.5901
 20
19.393
 30
0.0
  0
SPLINE
  5
1FC
330
1F
100
AcDbEntity
  8
Layer 1
370
    15
100
AcDbSpline
210
0.0
220
0.0
230
1.0
 70
    24
 71
     3
 72
     8
 73
     4
 74
     0
 42
0.0000000001
 43
0.0000000001
 12
1.0
 22
0.0
 32
0.0
 13
1.0
 23
0.0
 33
0.0
 40
0.0
 40
0.0
 40
0.0
 40
0.0
 40
1.0
 40
1.0
 40
1.0
 40
1.0
 10
-260.59
 20
5.393
 30
0.0
 10
-260.59
 20
5.393
 30
0.0
 10
-260.59
 20
0.5812
 30
0.0
 10
-260.59
 20
0.5812
 30
0.0
  0
SPLINE
  5
1FD
330
1F
100
AcDbEntity
  8
Layer 1
370
    15
100
AcDbSpline
210
0.0
220
0.0
230
1.0
 70
     8
 71
     3
 72
     8
 73
     4
 74
     0
 42
0.0000000001
 43
0.0000000001
 12
1.0
 22
0.0
 32
0.0
 13
1.0
 23
0.0
 33
0.0
 40
0.0
 40
0.0
 40
0.0
 40
0.0
 40
1.0
 40
1.0
 40
1.0
 40
1.0
 10
-260.59
 20
0.5812
 30
0.0
 10
-260.59
 20
-0.4267
 30
0.0
 10
-261.34
 20
-1.2771
 30
0.0
 10
-262.34
 20
-1.4031
 30
0.0
  0
SPLINE
  5
1FE
330
1F
100
AcDbEntity
  8
Layer 1
370
    15
100
AcDbSpline
210
0.0
220
0.0
230
1.0
 70
     8
 71
     3
 72
     8
 73
     4
 74
     0
 42
0.0000000001
 43
0.0000000001
 12
1.0
 22
0.0
 32
0.0
 13
1.0
 23
0.0
 33
0.0
 40
0.0
 40
0.0
 40
0.0
 40
0.0
 40
1.0
 40
1.0
 40
1.0
 40
1.0
 10
-233.6331
 20
69.6737
 30
0.0
 10
-235.7912
 20
69.4018
 30
0.0
 10
-237.975
 20
69.4018
 30
0.0
 10
-240.1331
 20
69.6737
 30
0.0
  0
SPLINE
  5
1FF
330
1F
100
AcDbEntity
  8
Layer 1
370
    15
100
AcDbSpline
210
0.0
220
0.0
230
1.0
 70
     8
 71
     3
 72
     8
 73
     4
 74
     0
 42
0.0000000001
 43
0.0000000001
 12
1.0
 22
0.0
 32
0.0
 13
1.0
 23
0.0
 33
0.0
 40
0.0
 40
0.0
 40
0.0
 40
0.0
 40
1.0
 40
1.0
 40
1.0
 40
1.0
 10
-240.1331
 20
69.6737
 30
0.0
 10
-241.1331
 20
69.7997
 30
0.0
 10
-241.8831
 20
70.6501
 30
0.0
 10
-241.8831
 20
71.658
 30
0.0
  0
SPLINE
  5
200
330
1F
100
AcDbEntity
  8
Layer 1
370
    15
100
AcDbSpline
210
0.0
220
0.0
230
1.0
 70
    24
 71
     3
 72
     8
 73
     4
 74
     0
 42
0.0000000001
 43
0.0000000001
 12
1.0
 22
0.0
 32
0.0
 13
1.0
 23
0.0
 33
0.0
 40
0.0
 40
0.0
 40
0.0
 40
0.0
 40
1.0
 40
1.0
 40
1.0
 40
1.0
 10
-241.8831
 20
71.658
 30
0.0
 10
-241.8831
 20
71.658
 30
0.0
 10
-241.8831
 20
76.4698
 30
0.0
 10
-241.8831
 20
76.4698
 30
0.0
  0
SPLINE
  5
201
330
1F
100
AcDbEntity
  8
Layer 1
370
    15
100
AcDbSpline
210
0.0
220
0.0
230
1.0
 70
     8
 71
     3
 72
    12
 73
     8
 74
     0
 42
0.0000000001
 43
0.0000000001
 12
1.0
 22
0.0
 32
0.0
 13
1.0
 23
0.0
 33
0.0
 40
0.0
 40
0.0
 40
0.0
 40
0.0
 40
0.3333333333333333
 40
0.3333333333333333
 40
0.3333333333333333
 40
0.3333333333333333
 40
1.0
 40
1.0
 40
1.0
 40
1.0
 10
-255.8831
 20
90.4698
 30
0.0
 10
-252.1701
 20
90.4698
 30
0.0
 10
-248.6091
 20
88.9948
 30
0.0
 10
-245.9836
 20
86.3693
 30
0.0
 10
-245.9836
 20
86.3693
 30
0.0
 10
-243.3581
 20
83.7438
 30
0.0
 10
-241.8831
 20
80.1828
 30
0.0
 10
-241.8831
 20
76.4698
 30
0.0
  0
SPLINE
  5
202
330
1F
100
AcDbEntity
  8
Layer 1
370
    15
100
AcDbSpline
210
0.0
220
0.0
230
1.0
 70
    24
 71
     3
 72
     8
 73
     4
 74
     0
 42
0.0000000001
 43
0.0000000001
 12
1.0
 22
0.0
 32
0.0
 13
1.0
 23
0.0
 33
0.0
 40
0.0
 40
0.0
 40
0.0
 40
0.0
 40
1.0
 40
1.0
 40
1.0
 40
1.0
 10
-255.8831
 20
90.4698
 30
0.0
 10
-255.8831
 20
90.4698
 30
0.0
 10
-260.6949
 20
90.4698
 30
0.0
 10
-260.6949
 20
90.4698
 30
0.0
  0
SPLINE
  5
203
330
1F
100
AcDbEntity
  8
Layer 1
370
    15
100
AcDbSpline
210
0.0
220
0.0
230
1.0
 70
     8
 71
     3
 72
     8
 73
     4
 74
     0
 42
0.0000000001
 43
0.0000000001
 12
1.0
 22
0.0
 32
0.0
 13
1.0
 23
0.0
 33
0.0
 40
0.0
 40
0.0
 40
0.0
 40
0.0
 40
1.0
 40
1.0
 40
1.0
 40
1.0
 10
-260.6949
 20
90.4698
 30
0.0
 10
-261.7028
 20
90.4698
 30
0.0
 10
-262.5532
 20
91.2198
 30
0.0
 10
-262.6792
 20
92.2198
 30
0.0
  0
SPLINE
  5
204
330
1F
100
AcDbEntity
  8
Layer 1
370
    15
100
AcDbSpline
210
0.0
220
0.0
230
1.0
 70
     8
 71
     3
 72
     8
 73
     4
 74
     0
 42
0.0000000001
 43
0.0000000001
 12
1.0
 22
0.0
 32
0.0
 13
1.0
 23
0.0
 33
0.0
 40
0.0
 40
0.0
 40
0.0
 40
0.0
 40
1.0
 40
1.0
 40
1.0
 40
1.0
 10
-262.6792
 20
92.2198
 30
0.0
 10
-262.9511
 20
94.3779
 30
0.0
 10
-262.9511
 20
96.5617
 30
0.0
 10
-262.6792
 20
98.7198
 30
0.0
  0
SPLINE
  5
205
330
1F
100
AcDbEntity
  8
Layer 1
370
    15
100
AcDbSpline
210
0.0
220
0.0
230
1.0
 70
     8
 71
     3
 72
     8
 73
     4
 74
     0
 42
0.0000000001
 43
0.0000000001
 12
1.0
 22
0.0
 32
0.0
 13
1.0
 23
0.0
 33
0.0
 40
0.0
 40
0.0
 40
0.0
 40
0.0
 40
1.0
 40
1.0
 40
1.0
 40
1.0
 10
-262.6792
 20
98.7198
 30
0.0
 10
-262.5532
 20
99.7198
 30
0.0
 10
-261.7028
 20
100.4698
 30
0.0
 10
-260.6949
 20
100.4698
 30
0.0
  0
SPLINE
  5
206
330
1F
100
AcDbEntity
  8
Layer 1
370
    15
100
AcDbSpline
210
0.0
220
0.0
230
1.0
 70
    24
 71
     3
 72
     8
 73
     4
 74
     0
 42
0.0000000001
 43
0.0000000001
 12
1.0
 22
0.0
 32
0.0
 13
1.0
 23
0.0
 33
0.0
 40
0.0
 40
0.0
 40
0.0
 40
0.0
 40
1.0
 40
1.0
 40
1.0
 40
1.0
 10
-260.6949
 20
100.4698
 30
0.0
 10
-260.6949
 20
100.4698
 30
0.0
 10
-255.8831
 20
100.4698
 30
0.0
 10
-255.8831
 20
100.4698
 30
0.0
  0
SPLINE
  5
207
330
1F
100
AcDbEntity
  8
Layer 1
370
    15
100
AcDbSpline
210
0.0
220
0.0
230
1.0
 70
     8
 71
     3
 72
    12
 73
     8
 74
     0
 42
0.0000000001
 43
0.0000000001
 12
1.0
 22
0.0
 32
0.0
 13
1.0
 23
0.0
 33
0.0
 40
0.0
 40
0.0
 40
0.0
 40
0.0
 40
0.3333333333333333
 40
0.3333333333333333
 40
0.3333333333333333
 40
0.3333333333333333
 40
1.0
 40
1.0
 40
1.0
 40
1.0
 10
-241.8831
 20
114.4698
 30
0.0
 10
-241.8831
 20
110.7568
 30
0.0
 10
-243.3581
 20
107.1958
 30
0.0
 10
-245.9836
 20
104.5703
 30
0.0
 10
-245.9836
 20
104.5703
 30
0.0
 10
-248.6091
 20
101.9448
 30
0.0
 10
-252.1701
 20
100.4698
 30
0.0
 10
-255.8831
 20
100.4698
 30
0.0
  0
SPLINE
  5
208
330
1F
100
AcDbEntity
  8
Layer 1
370
    15
100
AcDbSpline
210
0.0
220
0.0
230
1.0
 70
    24
 71
     3
 72
     8
 73
     4
 74
     0
 42
0.0000000001
 43
0.0000000001
 12
1.0
 22
0.0
 32
0.0
 13
1.0
 23
0.0
 33
0.0
 40
0.0
 40
0.0
 40
0.0
 40
0.0
 40
1.0
 40
1.0
 40
1.0
 40
1.0
 10
-241.8831
 20
114.4698
 30
0.0
 10
-241.8831
 20
114.4698
 30
0.0
 10
-241.8831
 20
119.2816
 30
0.0
 10
-241.8831
 20
119.2816
 30
0.0
  0
SPLINE
  5
209
330
1F
100
AcDbEntity
  8
Layer 1
370
    15
100
AcDbSpline
210
0.0
220
0.0
230
1.0
 70
     8
 71
     3
 72
     8
 73
     4
 74
     0
 42
0.0000000001
 43
0.0000000001
 12
1.0
 22
0.0
 32
0.0
 13
1.0
 23
0.0
 33
0.0
 40
0.0
 40
0.0
 40
0.0
 40
0.0
 40
1.0
 40
1.0
 40
1.0
 40
1.0
 10
-241.8831
 20
119.2816
 30
0.0
 10
-241.8831
 20
120.2895
 30
0.0
 10
-241.1331
 20
121.1399
 30
0.0
 10
-240.1331
 20
121.2659
 30
0.0
  0
SPLINE
  5
20A
330
1F
100
AcDbEntity
  8
Layer 1
370
    15
100
AcDbSpline
210
0.0
220
0.0
230
1.0
 70
     8
 71
     3
 72
     8
 73
     4
 74
     0
 42
0.0000000001
 43
0.0000000001
 12
1.0
 22
0.0
 32
0.0
 13
1.0
 23
0.0
 33
0.0
 40
0.0
 40
0.0
 40
0.0
 40
0.0
 40
1.0
 40
1.0
 40
1.0
 40
1.0
 10
-240.1331
 20
121.2659
 30
0.0
 10
-237.975
 20
121.5378
 30
0.0
 10
-235.7913
 20
121.5378
 30
0.0
 10
-233.6332
 20
121.2659
 30
0.0
  0
SPLINE
  5
20B
330
1F
100
AcDbEntity
  8
Layer 1
370
    15
100
AcDbSpline
210
0.0
220
0.0
230
1.0
 70
     8
 71
     3
 72
     8
 73
     4
 74
     0
 42
0.0000000001
 43
0.0000000001
 12
1.0
 22
0.0
 32
0.0
 13
1.0
 23
0.0
 33
0.0
 40
0.0
 40
0.0
 40
0.0
 40
0.0
 40
1.0
 40
1.0
 40
1.0
 40
1.0
 10
-233.6331
 20
121.2659
 30
0.0
 10
-232.6331
 20
121.1399
 30
0.0
 10
-231.8831
 20
120.2895
 30
0.0
 10
-231.8831
 20
119.2816
 30
0.0
  0
SPLINE
  5
20C
330
1F
100
AcDbEntity
  8
Layer 1
370
    15
100
AcDbSpline
210
0.0
220
0.0
230
1.0
 70
    24
 71
     3
 72
     8
 73
     4
 74
     0
 42
0.0000000001
 43
0.0000000001
 12
1.0
 22
0.0
 32
0.0
 13
1.0
 23
0.0
 33
0.0
 40
0.0
 40
0.0
 40
0.0
 40
0.0
 40
1.0
 40
1.0
 40
1.0
 40
1.0
 10
-231.8831
 20
119.2816
 30
0.0
 10
-231.8831
 20
119.2816
 30
0.0
 10
-231.8831
 20
114.4698
 30
0.0
 10
-231.8831
 20
114.4698
 30
0.0
  0
SPLINE
  5
20D
330
1F
100
AcDbEntity
  8
Layer 1
370
    15
100
AcDbSpline
210
0.0
220
0.0
230
1.0
 70
     8
 71
     3
 72
    12
 73
     8
 74
     0
 42
0.0000000001
 43
0.0000000001
 12
1.0
 22
0.0
 32
0.0
 13
1.0
 23
0.0
 33
0.0
 40
0.0
 40
0.0
 40
0.0
 40
0.0
 40
0.3333333333333333
 40
0.3333333333333333
 40
0.3333333333333333
 40
0.3333333333333333
 40
1.0
 40
1.0
 40
1.0
 40
1.0
 10
-217.8831
 20
100.4698
 30
0.0
 10
-221.5961
 20
100.4698
 30
0.0
 10
-225.1571
 20
101.9448
 30
0.0
 10
-227.7826
 20
104.5703
 30
0.0
 10
-227.7826
 20
104.5703
 30
0.0
 10
-230.4081
 20
107.1958
 30
0.0
 10
-231.8831
 20
110.7568
 30
0.0
 10
-231.8831
 20
114.4698
 30
0.0
  0
SPLINE
  5
20E
330
1F
100
AcDbEntity
  8
Layer 1
370
    15
100
AcDbSpline
210
0.0
220
0.0
230
1.0
 70
    24
 71
     3
 72
     8
 73
     4
 74
     0
 42
0.0000000001
 43
0.0000000001
 12
1.0
 22
0.0
 32
0.0
 13
1.0
 23
0.0
 33
0.0
 40
0.0
 40
0.0
 40
0.0
 40
0.0
 40
1.0
 40
1.0
 40
1.0
 40
1.0
 10
-217.8831
 20
100.4698
 30
0.0
 10
-217.8831
 20
100.4698
 30
0.0
 10
-213.0713
 20
100.4698
 30
0.0
 10
-213.0713
 20
100.4698
 30
0.0
  0
SPLINE
  5
20F
330
1F
100
AcDbEntity
  8
Layer 1
370
    15
100
AcDbSpline
210
0.0
220
0.0
230
1.0
 70
     8
 71
     3
 72
     8
 73
     4
 74
     0
 42
0.0000000001
 43
0.0000000001
 12
1.0
 22
0.0
 32
0.0
 13
1.0
 23
0.0
 33
0.0
 40
0.0
 40
0.0
 40
0.0
 40
0.0
 40
1.0
 40
1.0
 40
1.0
 40
1.0
 10
-213.0713
 20
100.4698
 30
0.0
 10
-212.0634
 20
100.4698
 30
0.0
 10
-211.213
 20
99.7198
 30
0.0
 10
-211.087
 20
98.7198
 30
0.0
  0
SPLINE
  5
210
330
1F
100
AcDbEntity
  8
Layer 1
370
    15
100
AcDbSpline
210
0.0
220
0.0
230
1.0
 70
     8
 71
     3
 72
     8
 73
     4
 74
     0
 42
0.0000000001
 43
0.0000000001
 12
1.0
 22
0.0
 32
0.0
 13
1.0
 23
0.0
 33
0.0
 40
0.0
 40
0.0
 40
0.0
 40
0.0
 40
1.0
 40
1.0
 40
1.0
 40
1.0
 10
-211.087
 20
98.7198
 30
0.0
 10
-210.8151
 20
96.5617
 30
0.0
 10
-210.8151
 20
94.3779
 30
0.0
 10
-211.087
 20
92.2198
 30
0.0
  0
SPLINE
  5
211
330
1F
100
AcDbEntity
  8
Layer 1
370
    15
100
AcDbSpline
210
0.0
220
0.0
230
1.0
 70
     8
 71
     3
 72
     8
 73
     4
 74
     0
 42
0.0000000001
 43
0.0000000001
 12
1.0
 22
0.0
 32
0.0
 13
1.0
 23
0.0
 33
0.0
 40
0.0
 40
0.0
 40
0.0
 40
0.0
 40
1.0
 40
1.0
 40
1.0
 40
1.0
 10
-211.087
 20
92.2198
 30
0.0
 10
-211.213
 20
91.2198
 30
0.0
 10
-212.0634
 20
90.4698
 30
0.0
 10
-213.0713
 20
90.4698
 30
0.0
  0
SPLINE
  5
212
330
1F
100
AcDbEntity
  8
Layer 1
370
    15
100
AcDbSpline
210
0.0
220
0.0
230
1.0
 70
    24
 71
     3
 72
     8
 73
     4
 74
     0
 42
0.0000000001
 43
0.0000000001
 12
1.0
 22
0.0
 32
0.0
 13
1.0
 23
0.0
 33
0.0
 40
0.0
 40
0.0
 40
0.0
 40
0.0
 40
1.0
 40
1.0
 40
1.0
 40
1.0
 10
-213.0713
 20
90.4698
 30
0.0
 10
-213.0713
 20
90.4698
 30
0.0
 10
-217.8831
 20
90.4698
 30
0.0
 10
-217.8831
 20
90.4698
 30
0.0
  0
SPLINE
  5
213
330
1F
100
AcDbEntity
  8
Layer 1
370
    15
100
AcDbSpline
210
0.0
220
0.0
230
1.0
 70
     8
 71
     3
 72
     8
 73
     4
 74
     0
 42
0.0000000001
 43
0.0000000001
 12
1.0
 22
0.0
 32
0.0
 13
1.0
 23
0.0
 33
0.0
 40
0.0
 40
0.0
 40
0.0
 40
0.0
 40
1.0
 40
1.0
 40
1.0
 40
1.0
 10
-231.8831
 20
76.4698
 30
0.0
 10
-231.8831
 20
84.2018
 30
0.0
 10
-225.6151
 20
90.4698
 30
0.0
 10
-217.8832
 20
90.4698
 30
0.0
  0
SPLINE
  5
214
330
1F
100
AcDbEntity
  8
Layer 1
370
    15
100
AcDbSpline
210
0.0
220
0.0
230
1.0
 70
    24
 71
     3
 72
     8
 73
     4
 74
     0
 42
0.0000000001
 43
0.0000000001
 12
1.0
 22
0.0
 32
0.0
 13
1.0
 23
0.0
 33
0.0
 40
0.0
 40
0.0
 40
0.0
 40
0.0
 40
1.0
 40
1.0
 40
1.0
 40
1.0
 10
-231.8831
 20
76.4698
 30
0.0
 10
-231.8831
 20
76.4698
 30
0.0
 10
-231.8831
 20
71.658
 30
0.0
 10
-231.8831
 20
71.658
 30
0.0
  0
SPLINE
  5
215
330
1F
100
AcDbEntity
  8
Layer 1
370
    15
100
AcDbSpline
210
0.0
220
0.0
230
1.0
 70
     8
 71
     3
 72
     8
 73
     4
 74
     0
 42
0.0000000001
 43
0.0000000001
 12
1.0
 22
0.0
 32
0.0
 13
1.0
 23
0.0
 33
0.0
 40
0.0
 40
0.0
 40
0.0
 40
0.0
 40
1.0
 40
1.0
 40
1.0
 40
1.0
 10
-231.8831
 20
71.658
 30
0.0
 10
-231.8831
 20
70.6501
 30
0.0
 10
-232.6331
 20
69.7997
 30
0.0
 10
-233.6331
 20
69.6737
 30
0.0
  0
ENDSEC
  0
SECTION
  2
OBJECTS
  0
DICTIONARY
  5
C
330
0
100
AcDbDictionary
281
     1
  3
ACAD_GROUP
350
D
  3
ACAD_LAYOUT
350
1A
  3
ACAD_MATERIAL
350
3B
  3
ACAD_MLEADERSTYLE
350
237
  3
ACAD_MLINESTYLE
350
17
  3
ACAD_PLOTSETTINGS
350
19
  3
ACAD_PLOTSTYLENAME
350
E
  3
ACAD_TABLESTYLE
350
236
  3
ACAD_VISUALSTYLE
350
2A
  0
DICTIONARY
  5
D
102
{ACAD_REACTORS
330
C
102
}
330
C
100
AcDbDictionary
281
     1
  0
DICTIONARY
  5
1A
102
{ACAD_REACTORS
330
C
102
}
330
C
100
AcDbDictionary
281
     1
  3
Layout1
350
1E
  3
Layout2
350
26
  3
Model
350
22
  0
DICTIONARY
  5
3B
102
{ACAD_REACTORS
330
C
102
}
330
C
100
AcDbDictionary
281
     1
  3
ByBlock
350
3D
  3
ByLayer
350
3C
  3
Global
350
3E
  0
DICTIONARY
  5
237
102
{ACAD_REACTORS
330
C
102
}
330
C
100
AcDbDictionary
281
     1
  0
DICTIONARY
  5
17
102
{ACAD_REACTORS
330
C
102
}
330
C
100
AcDbDictionary
281
     1
  3
Standard
350
18
  0
DICTIONARY
  5
19
102
{ACAD_REACTORS
330
C
102
}
330
C
100
AcDbDictionary
281
     1
  0
ACDBDICTIONARYWDFLT
  5
E
102
{ACAD_REACTORS
330
C
102
}
330
C
100
AcDbDictionary
281
     1
  3
Normal
350
F
100
AcDbDictionaryWithDefault
340
F
  0
DICTIONARY
  5
236
102
{ACAD_REACTORS
330
C
102
}
330
C
100
AcDbDictionary
281
     1
  0
DICTIONARY
  5
2A
102
{ACAD_REACTORS
330
C
102
}
330
C
100
AcDbDictionary
281
     1
  3
2dWireframe
350
2F
  3
3D Hidden
350
31
  3
3dWireframe
350
30
  3
Basic
350
32
  3
Brighten
350
36
  3
ColorChange
350
3A
  3
Conceptual
350
34
  3
Dim
350
35
  3
Facepattern
350
39
  3
Flat
350
2B
  3
FlatWithEdges
350
2C
  3
Gouraud
350
2D
  3
GouraudWithEdges
350
2E
  3
Linepattern
350
38
  3
Realistic
350
33
  3
Thicken
350
37
  0
LAYOUT
  5
1E
102
{ACAD_REACTORS
330
1A
102
}
330
1A
100
AcDbPlotSettings
  1

  2
none_device
  4

  6

 40
0.0
 41
0.0
 42
0.0
 43
0.0
 44
0.0
 45
0.0
 46
0.0
 47
0.0
 48
0.0
 49
0.0
140
0.0
141
0.0
142
1.0
143
1.0
 70
   688
 72
     0
 73
     0
 74
     5
  7

 75
    16
 76
     0
 77
     2
 78
   300
147
1.0
148
0.0
149
0.0
100
AcDbLayout
  1
Layout1
 70
     1
 71
     1
 10
0.0
 20
0.0
 11
12.0
 21
9.0
 12
0.0
 22
0.0
 32
0.0
 14
1.000000000000000E+20
 24
1.000000000000000E+20
 34
1.000000000000000E+20
 15
-1.000000000000000E+20
 25
-1.000000000000000E+20
 35
-1.000000000000000E+20
146
0.0
 13
0.0
 23
0.0
 33
0.0
 16
1.0
 26
0.0
 36
0.0
 17
0.0
 27
1.0
 37
0.0
 76
     0
330
1B
  0
LAYOUT
  5
26
102
{ACAD_REACTORS
330
1A
102
}
330
1A
100
AcDbPlotSettings
  1

  2
none_device
  4

  6

 40
0.0
 41
0.0
 42
0.0
 43
0.0
 44
0.0
 45
0.0
 46
0.0
 47
0.0
 48
0.0
 49
0.0
140
0.0
141
0.0
142
1.0
143
1.0
 70
   688
 72
     0
 73
     0
 74
     5
  7

 75
    16
 76
     0
 77
     2
 78
   300
147
1.0
148
0.0
149
0.0
100
AcDbLayout
  1
Layout2
 70
     1
 71
     2
 10
0.0
 20
0.0
 11
0.0
 21
0.0
 12
0.0
 22
0.0
 32
0.0
 14
0.0
 24
0.0
 34
0.0
 15
0.0
 25
0.0
 35
0.0
146
0.0
 13
0.0
 23
0.0
 33
0.0
 16
1.0
 26
0.0
 36
0.0
 17
0.0
 27
1.0
 37
0.0
 76
     0
330
23
  0
LAYOUT
  5
22
102
{ACAD_REACTORS
330
1A
102
}
330
1A
100
AcDbPlotSettings
  1

  2
none_device
  4

  6

 40
0.0
 41
0.0
 42
0.0
 43
0.0
 44
0.0
 45
0.0
 46
0.0
 47
0.0
 48
0.0
 49
0.0
140
0.0
141
0.0
142
1.0
143
1.0
 70
  1712
 72
     0
 73
     0
 74
     0
  7

 75
     0
 76
     0
 77
     2
 78
   300
147
1.0
148
0.0
149
0.0
100
AcDbLayout
  1
Model
 70
     1
 71
     0
 10
0.0
 20
0.0
 11
12.0
 21
9.0
 12
0.0
 22
0.0
 32
0.0
 14
-295.5883
 24
-142.9541
 34
0.0
 15
294.1415
 25
143.2357
 35
0.0
146
0.0
 13
0.0
 23
0.0
 33
0.0
 16
1.0
 26
0.0
 36
0.0
 17
0.0
 27
1.0
 37
0.0
 76
     0
330
1F
331
29
  0
MATERIAL
  5
3D
102
{ACAD_REACTORS
330
3B
102
}
330
3B
100
AcDbMaterial
  1
ByBlock
 72
     1
 94
      127
  0
MATERIAL
  5
3C
102
{ACAD_REACTORS
330
3B
102
}
330
3B
100
AcDbMaterial
  1
ByLayer
 72
     1
 94
      127
  0
MATERIAL
  5
3E
102
{ACAD_REACTORS
330
3B
102
}
330
3B
100
AcDbMaterial
  1
Global
 72
     1
 94
      127
  0
MLINESTYLE
  5
18
102
{ACAD_REACTORS
330
17
102
}
330
17
100
AcDbMlineStyle
  2
Standard
 70
     0
  3

 62
   256
 51
90.0
 52
90.0
 71
     2
 49
0.5
 62
   256
  6
BYLAYER
 49
-0.5
 62
   256
  6
BYLAYER
  0
ACDBPLACEHOLDER
  5
F
102
{ACAD_REACTORS
330
E
102
}
330
E
  0
VISUALSTYLE
  5
2F
102
{ACAD_REACTORS
330
2A
102
}
102
{ACAD_XDICTIONARY
360
21E
102
}
330
2A
100
AcDbVisualStyle
  2
2dWireframe
 70
     4
 71
     0
 72
     2
 73
     0
 90
        0
 40
-0.6
 41
-30.0
 62
     5
 63
     7
421
 16777215
 74
     1
 91
        4
 64
     7
 65
   257
 75
     1
175
     1
 42
1.0
 92
        0
 66
   257
 43
1.0
 76
     1
 77
     6
 78
     2
 67
     7
 79
     5
170
     0
171
     0
290
     0
174
     0
 93
        1
 44
0.0
173
     0
291
     0
 45
0.0
  0
VISUALSTYLE
  5
31
102
{ACAD_REACTORS
330
2A
102
}
102
{ACAD_XDICTIONARY
360
222
102
}
330
2A
100
AcDbVisualStyle
  2
3D Hidden
 70
     6
 71
     1
 72
     2
 73
     2
 90
        0
 40
-0.6
 41
-30.0
 62
     5
 63
     7
421
 16777215
 74
     2
 91
        2
 64
     7
 65
   257
 75
     2
175
     1
 42
40.0
 92
        0
 66
   257
 43
1.0
 76
     1
 77
     6
 78
     2
 67
     7
 79
     3
170
     0
171
     0
290
     0
174
     0
 93
        1
 44
0.0
173
     0
291
     0
 45
0.0
  0
VISUALSTYLE
  5
30
102
{ACAD_REACTORS
330
2A
102
}
102
{ACAD_XDICTIONARY
360
220
102
}
330
2A
100
AcDbVisualStyle
  2
3dWireframe
 70
     5
 71
     0
 72
     2
 73
     0
 90
        0
 40
-0.6
 41
-30.0
 62
     5
 63
     7
421
 16777215
 74
     1
 91
        4
 64
     7
 65
   257
 75
     1
175
     1
 42
1.0
 92
        0
 66
   257
 43
1.0
 76
     1
 77
     6
 78
     2
 67
     7
 79
     5
170
     0
171
     0
290
     0
174
     0
 93
        1
 44
0.0
173
     0
291
     0
 45
0.0
  0
VISUALSTYLE
  5
32
102
{ACAD_REACTORS
330
2A
102
}
102
{ACAD_XDICTIONARY
360
224
102
}
330
2A
100
AcDbVisualStyle
  2
Basic
 70
     7
 71
     1
 72
     0
 73
     1
 90
        0
 40
-0.6
 41
-30.0
 62
     5
 63
     7
421
 16777215
 74
     0
 91
        4
 64
     7
 65
   257
 75
     1
175
     1
 42
1.0
 92
        8
 66
     7
 43
1.0
 76
     1
 77
     6
 78
     2
 67
     7
 79
     5
170
     0
171
     0
290
     0
174
     0
 93
        1
 44
0.0
173
     0
291
     1
 45
0.0
  0
VISUALSTYLE
  5
36
102
{ACAD_REACTORS
330
2A
102
}
102
{ACAD_XDICTIONARY
360
22C
102
}
330
2A
100
AcDbVisualStyle
  2
Brighten
 70
    12
 71
     2
 72
     2
 73
     0
 90
        0
 40
-0.6
 41
-30.0
 62
     5
 63
     7
421
 16777215
 74
     1
 91
        4
 64
     7
 65
   257
 75
     1
175
     1
 42
1.0
 92
        8
 66
     7
 43
1.0
 76
     1
 77
     6
 78
     2
 67
     7
 79
     5
170
     0
171
     0
290
     0
174
     0
 93
        1
 44
50.0
173
     0
291
     1
 45
0.0
  0
VISUALSTYLE
  5
3A
102
{ACAD_REACTORS
330
2A
102
}
102
{ACAD_XDICTIONARY
360
234
102
}
330
2A
100
AcDbVisualStyle
  2
ColorChange
 70
    16
 71
     2
 72
     2
 73
     3
 90
        0
 40
-0.6
 41
-30.0
 62
     5
 63
     8
421
  8421504
 74
     1
 91
        4
 64
     7
 65
   257
 75
     1
175
     1
 42
1.0
 92
        8
 66
     8
424
  8421504
 43
1.0
 76
     1
 77
     6
 78
     2
 67
     7
 79
     5
170
     0
171
     0
290
     0
174
     0
 93
        1
 44
0.0
173
     0
291
     1
 45
0.0
  0
VISUALSTYLE
  5
34
102
{ACAD_REACTORS
330
2A
102
}
102
{ACAD_XDICTIONARY
360
228
102
}
330
2A
100
AcDbVisualStyle
  2
Conceptual
 70
     9
 71
     3
 72
     2
 73
     0
 90
        0
 40
-0.6
 41
-30.0
 62
     5
 63
     7
421
 16777215
 74
     2
 91
        2
 64
     7
 65
   257
 75
     1
175
     1
 42
40.0
 92
        8
 66
     7
 43
1.0
 76
     1
 77
     6
 78
     2
 67
     7
 79
     3
170
     0
171
     0
290
     0
174
     0
 93
        1
 44
0.0
173
     0
291
     0
 45
0.0
  0
VISUALSTYLE
  5
35
102
{ACAD_REACTORS
330
2A
102
}
102
{ACAD_XDICTIONARY
360
22A
102
}
330
2A
100
AcDbVisualStyle
  2
Dim
 70
    11
 71
     2
 72
     2
 73
     0
 90
        0
 40
-0.6
 41
-30.0
 62
     5
 63
     7
421
 16777215
 74
     1
 91
        4
 64
     7
 65
   257
 75
     1
175
     1
 42
1.0
 92
        8
 66
     7
 43
1.0
 76
     1
 77
     6
 78
     2
 67
     7
 79
     5
170
     0
171
     0
290
     0
174
     0
 93
        1
 44
-50.0
173
     0
291
     1
 45
0.0
  0
VISUALSTYLE
  5
39
102
{ACAD_REACTORS
330
2A
102
}
102
{ACAD_XDICTIONARY
360
232
102
}
330
2A
100
AcDbVisualStyle
  2
Facepattern
 70
    15
 71
     2
 72
     2
 73
     0
 90
        0
 40
-0.6
 41
-30.0
 62
     5
 63
     7
421
 16777215
 74
     1
 91
        4
 64
     7
 65
   257
 75
     1
175
     1
 42
1.0
 92
        8
 66
     7
 43
1.0
 76
     1
 77
     6
 78
     2
 67
     7
 79
     5
170
     0
171
     0
290
     0
174
     0
 93
        1
 44
0.0
173
     0
291
     1
 45
0.0
  0
VISUALSTYLE
  5
2B
102
{ACAD_REACTORS
330
2A
102
}
102
{ACAD_XDICTIONARY
360
216
102
}
330
2A
100
AcDbVisualStyle
  2
Flat
 70
     0
 71
     2
 72
     1
 73
     1
 90
        2
 40
-0.6
 41
30.0
 62
     5
 63
     7
421
 16777215
 74
     0
 91
        4
 64
     7
 65
   257
 75
     1
175
     1
 42
1.0
 92
        8
 66
     7
 43
1.0
 76
     1
 77
     6
 78
     2
 67
     7
 79
     5
170
     0
171
     0
290
     0
174
     0
 93
       13
 44
0.0
173
     0
291
     1
 45
0.0
  0
VISUALSTYLE
  5
2C
102
{ACAD_REACTORS
330
2A
102
}
102
{ACAD_XDICTIONARY
360
218
102
}
330
2A
100
AcDbVisualStyle
  2
FlatWithEdges
 70
     1
 71
     2
 72
     1
 73
     1
 90
        2
 40
-0.6
 41
30.0
 62
     5
 63
     7
421
 16777215
 74
     1
 91
        4
 64
     7
 65
   257
 75
     1
175
     1
 42
1.0
 92
        0
 66
   257
 43
1.0
 76
     1
 77
     6
 78
     2
 67
     7
 79
     5
170
     0
171
     0
290
     0
174
     0
 93
       13
 44
0.0
173
     0
291
     1
 45
0.0
  0
VISUALSTYLE
  5
2D
102
{ACAD_REACTORS
330
2A
102
}
102
{ACAD_XDICTIONARY
360
21A
102
}
330
2A
100
AcDbVisualStyle
  2
Gouraud
 70
     2
 71
     2
 72
     2
 73
     1
 90
        2
 40
-0.6
 41
30.0
 62
     5
 63
     7
421
 16777215
 74
     0
 91
        4
 64
     7
 65
   257
 75
     1
175
     1
 42
1.0
 92
        0
 66
     7
 43
1.0
 76
     1
 77
     6
 78
     2
 67
     7
 79
     5
170
     0
171
     0
290
     0
174
     0
 93
       13
 44
0.0
173
     0
291
     1
 45
0.0
  0
VISUALSTYLE
  5
2E
102
{ACAD_REACTORS
330
2A
102
}
102
{ACAD_XDICTIONARY
360
21C
102
}
330
2A
100
AcDbVisualStyle
  2
GouraudWithEdges
 70
     3
 71
     2
 72
     2
 73
     1
 90
        2
 40
-0.6
 41
30.0
 62
     5
 63
     7
421
 16777215
 74
     1
 91
        4
 64
     7
 65
   257
 75
     1
175
     1
 42
1.0
 92
        0
 66
   257
 43
1.0
 76
     1
 77
     6
 78
     2
 67
     7
 79
     5
170
     0
171
     0
290
     0
174
     0
 93
       13
 44
0.0
173
     0
291
     1
 45
0.0
  0
VISUALSTYLE
  5
38
102
{ACAD_REACTORS
330
2A
102
}
102
{ACAD_XDICTIONARY
360
230
102
}
330
2A
100
AcDbVisualStyle
  2
Linepattern
 70
    14
 71
     2
 72
     2
 73
     0
 90
        0
 40
-0.6
 41
-30.0
 62
     5
 63
     7
421
 16777215
 74
     1
 91
        4
 64
     7
 65
   257
 75
     7
175
     7
 42
1.0
 92
        8
 66
     7
 43
1.0
 76
     1
 77
     6
 78
     2
 67
     7
 79
     5
170
     0
171
     0
290
     0
174
     0
 93
        1
 44
0.0
173
     0
291
     1
 45
0.0
  0
VISUALSTYLE
  5
33
102
{ACAD_REACTORS
330
2A
102
}
102
{ACAD_XDICTIONARY
360
226
102
}
330
2A
100
AcDbVisualStyle
  2
Realistic
 70
     8
 71
     2
 72
     2
 73
     0
 90
        0
 40
-0.6
 41
-30.0
 62
     5
 63
     7
421
 16777215
 74
     1
 91
        0
 64
     7
 65
   257
 75
     1
175
     1
 42
1.0
 92
        8
 66
     8
424
  7895160
 43
1.0
 76
     1
 77
     6
 78
     2
 67
     7
 79
     5
170
     0
171
     0
290
     0
174
     0
 93
       13
 44
0.0
173
     0
291
     0
 45
0.0
  0
VISUALSTYLE
  5
37
102
{ACAD_REACTORS
330
2A
102
}
102
{ACAD_XDICTIONARY
360
22E
102
}
330
2A
100
AcDbVisualStyle
  2
Thicken
 70
    13
 71
     2
 72
     2
 73
     0
 90
        0
 40
-0.6
 41
-30.0
 62
     5
 63
     7
421
 16777215
 74
     1
 91
        4
 64
     7
 65
   257
 75
     1
175
     1
 42
1.0
 92
       12
 66
     7
 43
1.0
 76
     1
 77
     6
 78
     2
 67
     7
 79
     5
170
     0
171
     0
290
     0
174
     0
 93
        1
 44
0.0
173
     0
291
     1
 45
0.0
  0
DICTIONARY
  5
21E
330
2F
100
AcDbDictionary
280
     1
281
     1
  3
ACAD_XREC_ROUNDTRIP
360
21F
  0
DICTIONARY
  5
222
330
31
100
AcDbDictionary
280
     1
281
     1
  3
ACAD_XREC_ROUNDTRIP
360
223
  0
DICTIONARY
  5
220
330
30
100
AcDbDictionary
280
     1
281
     1
  3
ACAD_XREC_ROUNDTRIP
360
221
  0
DICTIONARY
  5
224
330
32
100
AcDbDictionary
280
     1
281
     1
  3
ACAD_XREC_ROUNDTRIP
360
225
  0
DICTIONARY
  5
22C
330
36
100
AcDbDictionary
280
     1
281
     1
  3
ACAD_XREC_ROUNDTRIP
360
22D
  0
DICTIONARY
  5
234
330
3A
100
AcDbDictionary
280
     1
281
     1
  3
ACAD_XREC_ROUNDTRIP
360
235
  0
DICTIONARY
  5
228
330
34
100
AcDbDictionary
280
     1
281
     1
  3
ACAD_XREC_ROUNDTRIP
360
229
  0
DICTIONARY
  5
22A
330
35
100
AcDbDictionary
280
     1
281
     1
  3
ACAD_XREC_ROUNDTRIP
360
22B
  0
DICTIONARY
  5
232
330
39
100
AcDbDictionary
280
     1
281
     1
  3
ACAD_XREC_ROUNDTRIP
360
233
  0
DICTIONARY
  5
216
330
2B
100
AcDbDictionary
280
     1
281
     1
  3
ACAD_XREC_ROUNDTRIP
360
217
  0
DICTIONARY
  5
218
330
2C
100
AcDbDictionary
280
     1
281
     1
  3
ACAD_XREC_ROUNDTRIP
360
219
  0
DICTIONARY
  5
21A
330
2D
100
AcDbDictionary
280
     1
281
     1
  3
ACAD_XREC_ROUNDTRIP
360
21B
  0
DICTIONARY
  5
21C
330
2E
100
AcDbDictionary
280
     1
281
     1
  3
ACAD_XREC_ROUNDTRIP
360
21D
  0
DICTIONARY
  5
230
330
38
100
AcDbDictionary
280
     1
281
     1
  3
ACAD_XREC_ROUNDTRIP
360
231
  0
DICTIONARY
  5
226
330
33
100
AcDbDictionary
280
     1
281
     1
  3
ACAD_XREC_ROUNDTRIP
360
227
  0
DICTIONARY
  5
22E
330
37
100
AcDbDictionary
280
     1
281
     1
  3
ACAD_XREC_ROUNDTRIP
360
22F
  0
XRECORD
  5
21F
102
{ACAD_REACTORS
330
21E
102
}
330
21E
100
AcDbXrecord
280
     1
102
RTVSPropertyOp0
 70
     1
102
RTVSPropertyOp1
 70
     1
102
RTVSPropertyOp2
 70
     1
102
RTVSPropertyOp3
 70
     1
102
RTVSPropertyOp4
 70
     1
102
RTVSPropertyOp5
 70
     1
102
RTVSPropertyOp6
 70
     1
102
RTVSPropertyOp7
 70
     1
102
RTVSPropertyOp8
 70
     1
102
RTVSPropertyOp9
 70
     1
102
RTVSPropertyOp10
 70
     1
102
RTVSPropertyOp11
 70
     1
102
RTVSPropertyOp12
 70
     1
102
RTVSPropertyOp13
 70
     1
102
RTVSPropertyOp14
 70
     1
102
RTVSPropertyOp15
 70
     1
102
RTVSPropertyOp16
 70
     1
102
RTVSPropertyOp17
 70
     1
102
RTVSPropertyOp18
 70
     1
102
RTVSPropertyOp19
 70
     1
102
RTVSPropertyOp20
 70
     1
102
RTVSPropertyOp21
 70
     1
102
RTVSPropertyOp22
 70
     1
102
RTVSPropertyOp23
 70
     1
102
RTVSPropertyOp24
 70
     1
102
RTVSPropertyOp25
 70
     1
102
RTVSPropertyOp26
 70
     1
102
RTVSPropertyOp27
 70
     1
102
RTVSPropertyOp28
 70
     1
102
RTVSPropertyOp29
 70
     1
102
RTVSPropertyOp30
 70
     1
102
RTVSPropertyOp31
 70
     1
102
RTVSPropertyOp32
 70
     1
  0
XRECORD
  5
223
102
{ACAD_REACTORS
330
222
102
}
330
222
100
AcDbXrecord
280
     1
102
RTVSPropertyOp0
 70
     1
102
RTVSPropertyOp1
 70
     1
102
RTVSPropertyOp2
 70
     1
102
RTVSPropertyOp3
 70
     1
102
RTVSPropertyOp4
 70
     1
102
RTVSPropertyOp5
 70
     1
102
RTVSPropertyOp6
 70
     1
102
RTVSPropertyOp7
 70
     1
102
RTVSPropertyOp8
 70
     1
102
RTVSPropertyOp9
 70
     1
102
RTVSPropertyOp10
 70
     1
102
RTVSPropertyOp11
 70
     1
102
RTVSPropertyOp12
 70
     1
102
RTVSPropertyOp13
 70
     1
102
RTVSPropertyOp14
 70
     1
102
RTVSPropertyOp15
 70
     1
102
RTVSPropertyOp16
 70
     1
102
RTVSPropertyOp17
 70
     1
102
RTVSPropertyOp18
 70
     1
102
RTVSPropertyOp19
 70
     1
102
RTVSPropertyOp20
 70
     1
102
RTVSPropertyOp21
 70
     1
102
RTVSPropertyOp22
 70
     1
102
RTVSPropertyOp23
 70
     1
102
RTVSPropertyOp24
 70
     1
102
RTVSPropertyOp25
 70
     1
102
RTVSPropertyOp26
 70
     1
102
RTVSPropertyOp27
 70
     1
102
RTVSPropertyOp28
 70
     1
102
RTVSPropertyOp29
 70
     1
102
RTVSPropertyOp30
 70
     1
102
RTVSPropertyOp31
 70
     1
102
RTVSPropertyOp32
 70
     1
  0
XRECORD
  5
221
102
{ACAD_REACTORS
330
220
102
}
330
220
100
AcDbXrecord
280
     1
102
RTVSPropertyOp0
 70
     1
102
RTVSPropertyOp1
 70
     1
102
RTVSPropertyOp2
 70
     1
102
RTVSPropertyOp3
 70
     1
102
RTVSPropertyOp4
 70
     1
102
RTVSPropertyOp5
 70
     1
102
RTVSPropertyOp6
 70
     1
102
RTVSPropertyOp7
 70
     1
102
RTVSPropertyOp8
 70
     1
102
RTVSPropertyOp9
 70
     1
102
RTVSPropertyOp10
 70
     1
102
RTVSPropertyOp11
 70
     1
102
RTVSPropertyOp12
 70
     1
102
RTVSPropertyOp13
 70
     1
102
RTVSPropertyOp14
 70
     1
102
RTVSPropertyOp15
 70
     1
102
RTVSPropertyOp16
 70
     1
102
RTVSPropertyOp17
 70
     1
102
RTVSPropertyOp18
 70
     1
102
RTVSPropertyOp19
 70
     1
102
RTVSPropertyOp20
 70
     1
102
RTVSPropertyOp21
 70
     1
102
RTVSPropertyOp22
 70
     1
102
RTVSPropertyOp23
 70
     1
102
RTVSPropertyOp24
 70
     1
102
RTVSPropertyOp25
 70
     1
102
RTVSPropertyOp26
 70
     1
102
RTVSPropertyOp27
 70
     1
102
RTVSPropertyOp28
 70
     1
102
RTVSPropertyOp29
 70
     1
102
RTVSPropertyOp30
 70
     1
102
RTVSPropertyOp31
 70
     1
102
RTVSPropertyOp32
 70
     1
  0
XRECORD
  5
225
102
{ACAD_REACTORS
330
224
102
}
330
224
100
AcDbXrecord
280
     1
102
RTVSPropertyOp0
 70
     1
102
RTVSPropertyOp1
 70
     1
102
RTVSPropertyOp2
 70
     1
102
RTVSPropertyOp3
 70
     1
102
RTVSPropertyOp4
 70
     1
102
RTVSPropertyOp5
 70
     1
102
RTVSPropertyOp6
 70
     1
102
RTVSPropertyOp7
 70
     1
102
RTVSPropertyOp8
 70
     1
102
RTVSPropertyOp9
 70
     1
102
RTVSPropertyOp10
 70
     1
102
RTVSPropertyOp11
 70
     1
102
RTVSPropertyOp12
 70
     1
102
RTVSPropertyOp13
 70
     1
102
RTVSPropertyOp14
 70
     1
102
RTVSPropertyOp15
 70
     1
102
RTVSPropertyOp16
 70
     1
102
RTVSPropertyOp17
 70
     1
102
RTVSPropertyOp18
 70
     1
102
RTVSPropertyOp19
 70
     1
102
RTVSPropertyOp20
 70
     1
102
RTVSPropertyOp21
 70
     1
102
RTVSPropertyOp22
 70
     1
102
RTVSPropertyOp23
 70
     1
102
RTVSPropertyOp24
 70
     1
102
RTVSPropertyOp25
 70
     1
102
RTVSPropertyOp26
 70
     1
102
RTVSPropertyOp27
 70
     1
102
RTVSPropertyOp28
 70
     1
102
RTVSPropertyOp29
 70
     1
102
RTVSPropertyOp30
 70
     1
102
RTVSPropertyOp31
 70
     1
102
RTVSPropertyOp32
 70
     1
  0
XRECORD
  5
22D
102
{ACAD_REACTORS
330
22C
102
}
330
22C
100
AcDbXrecord
280
     1
102
RTVSPropertyOp0
 70
     1
102
RTVSPropertyOp1
 70
     1
102
RTVSPropertyOp2
 70
     1
102
RTVSPropertyOp3
 70
     1
102
RTVSPropertyOp4
 70
     1
102
RTVSPropertyOp5
 70
     1
102
RTVSPropertyOp6
 70
     1
102
RTVSPropertyOp7
 70
     1
102
RTVSPropertyOp8
 70
     1
102
RTVSPropertyOp9
 70
     1
102
RTVSPropertyOp10
 70
     1
102
RTVSPropertyOp11
 70
     1
102
RTVSPropertyOp12
 70
     1
102
RTVSPropertyOp13
 70
     1
102
RTVSPropertyOp14
 70
     1
102
RTVSPropertyOp15
 70
     1
102
RTVSPropertyOp16
 70
     1
102
RTVSPropertyOp17
 70
     1
102
RTVSPropertyOp18
 70
     1
102
RTVSPropertyOp19
 70
     1
102
RTVSPropertyOp20
 70
     1
102
RTVSPropertyOp21
 70
     1
102
RTVSPropertyOp22
 70
     1
102
RTVSPropertyOp23
 70
     1
102
RTVSPropertyOp24
 70
     1
102
RTVSPropertyOp25
 70
     1
102
RTVSPropertyOp26
 70
     1
102
RTVSPropertyOp27
 70
     1
102
RTVSPropertyOp28
 70
     1
102
RTVSPropertyOp29
 70
     1
102
RTVSPropertyOp30
 70
     1
102
RTVSPropertyOp31
 70
     1
102
RTVSPropertyOp32
 70
     1
  0
XRECORD
  5
235
102
{ACAD_REACTORS
330
234
102
}
330
234
100
AcDbXrecord
280
     1
102
RTVSPropertyOp0
 70
     1
102
RTVSPropertyOp1
 70
     1
102
RTVSPropertyOp2
 70
     1
102
RTVSPropertyOp3
 70
     1
102
RTVSPropertyOp4
 70
     1
102
RTVSPropertyOp5
 70
     1
102
RTVSPropertyOp6
 70
     1
102
RTVSPropertyOp7
 70
     1
102
RTVSPropertyOp8
 70
     1
102
RTVSPropertyOp9
 70
     1
102
RTVSPropertyOp10
 70
     1
102
RTVSPropertyOp11
 70
     1
102
RTVSPropertyOp12
 70
     1
102
RTVSPropertyOp13
 70
     1
102
RTVSPropertyOp14
 70
     1
102
RTVSPropertyOp15
 70
     1
102
RTVSPropertyOp16
 70
     1
102
RTVSPropertyOp17
 70
     1
102
RTVSPropertyOp18
 70
     1
102
RTVSPropertyOp19
 70
     1
102
RTVSPropertyOp20
 70
     1
102
RTVSPropertyOp21
 70
     1
102
RTVSPropertyOp22
 70
     1
102
RTVSPropertyOp23
 70
     1
102
RTVSPropertyOp24
 70
     1
102
RTVSPropertyOp25
 70
     1
102
RTVSPropertyOp26
 70
     1
102
RTVSPropertyOp27
 70
     1
102
RTVSPropertyOp28
 70
     1
102
RTVSPropertyOp29
 70
     1
102
RTVSPropertyOp30
 70
     1
102
RTVSPropertyOp31
 70
     1
102
RTVSPropertyOp32
 70
     1
  0
XRECORD
  5
229
102
{ACAD_REACTORS
330
228
102
}
330
228
100
AcDbXrecord
280
     1
102
RTVSPropertyOp0
 70
     1
102
RTVSPropertyOp1
 70
     1
102
RTVSPropertyOp2
 70
     1
102
RTVSPropertyOp3
 70
     1
102
RTVSPropertyOp4
 70
     1
102
RTVSPropertyOp5
 70
     1
102
RTVSPropertyOp6
 70
     1
102
RTVSPropertyOp7
 70
     1
102
RTVSPropertyOp8
 70
     1
102
RTVSPropertyOp9
 70
     1
102
RTVSPropertyOp10
 70
     1
102
RTVSPropertyOp11
 70
     1
102
RTVSPropertyOp12
 70
     1
102
RTVSPropertyOp13
 70
     1
102
RTVSPropertyOp14
 70
     1
102
RTVSPropertyOp15
 70
     1
102
RTVSPropertyOp16
 70
     1
102
RTVSPropertyOp17
 70
     1
102
RTVSPropertyOp18
 70
     1
102
RTVSPropertyOp19
 70
     1
102
RTVSPropertyOp20
 70
     1
102
RTVSPropertyOp21
 70
     1
102
RTVSPropertyOp22
 70
     1
102
RTVSPropertyOp23
 70
     1
102
RTVSPropertyOp24
 70
     1
102
RTVSPropertyOp25
 70
     1
102
RTVSPropertyOp26
 70
     1
102
RTVSPropertyOp27
 70
     1
102
RTVSPropertyOp28
 70
     1
102
RTVSPropertyOp29
 70
     1
102
RTVSPropertyOp30
 70
     1
102
RTVSPropertyOp31
 70
     1
102
RTVSPropertyOp32
 70
     1
  0
XRECORD
  5
22B
102
{ACAD_REACTORS
330
22A
102
}
330
22A
100
AcDbXrecord
280
     1
102
RTVSPropertyOp0
 70
     1
102
RTVSPropertyOp1
 70
     1
102
RTVSPropertyOp2
 70
     1
102
RTVSPropertyOp3
 70
     1
102
RTVSPropertyOp4
 70
     1
102
RTVSPropertyOp5
 70
     1
102
RTVSPropertyOp6
 70
     1
102
RTVSPropertyOp7
 70
     1
102
RTVSPropertyOp8
 70
     1
102
RTVSPropertyOp9
 70
     1
102
RTVSPropertyOp10
 70
     1
102
RTVSPropertyOp11
 70
     1
102
RTVSPropertyOp12
 70
     1
102
RTVSPropertyOp13
 70
     1
102
RTVSPropertyOp14
 70
     1
102
RTVSPropertyOp15
 70
     1
102
RTVSPropertyOp16
 70
     1
102
RTVSPropertyOp17
 70
     1
102
RTVSPropertyOp18
 70
     1
102
RTVSPropertyOp19
 70
     1
102
RTVSPropertyOp20
 70
     1
102
RTVSPropertyOp21
 70
     1
102
RTVSPropertyOp22
 70
     1
102
RTVSPropertyOp23
 70
     1
102
RTVSPropertyOp24
 70
     1
102
RTVSPropertyOp25
 70
     1
102
RTVSPropertyOp26
 70
     1
102
RTVSPropertyOp27
 70
     1
102
RTVSPropertyOp28
 70
     1
102
RTVSPropertyOp29
 70
     1
102
RTVSPropertyOp30
 70
     1
102
RTVSPropertyOp31
 70
     1
102
RTVSPropertyOp32
 70
     1
  0
XRECORD
  5
233
102
{ACAD_REACTORS
330
232
102
}
330
232
100
AcDbXrecord
280
     1
102
RTVSPropertyOp0
 70
     1
102
RTVSPropertyOp1
 70
     1
102
RTVSPropertyOp2
 70
     1
102
RTVSPropertyOp3
 70
     1
102
RTVSPropertyOp4
 70
     1
102
RTVSPropertyOp5
 70
     1
102
RTVSPropertyOp6
 70
     1
102
RTVSPropertyOp7
 70
     1
102
RTVSPropertyOp8
 70
     1
102
RTVSPropertyOp9
 70
     1
102
RTVSPropertyOp10
 70
     1
102
RTVSPropertyOp11
 70
     1
102
RTVSPropertyOp12
 70
     1
102
RTVSPropertyOp13
 70
     1
102
RTVSPropertyOp14
 70
     1
102
RTVSPropertyOp15
 70
     1
102
RTVSPropertyOp16
 70
     1
102
RTVSPropertyOp17
 70
     1
102
RTVSPropertyOp18
 70
     1
102
RTVSPropertyOp19
 70
     1
102
RTVSPropertyOp20
 70
     1
102
RTVSPropertyOp21
 70
     1
102
RTVSPropertyOp22
 70
     1
102
RTVSPropertyOp23
 70
     1
102
RTVSPropertyOp24
 70
     1
102
RTVSPropertyOp25
 70
     1
102
RTVSPropertyOp26
 70
     1
102
RTVSPropertyOp27
 70
     1
102
RTVSPropertyOp28
 70
     1
102
RTVSPropertyOp29
 70
     1
102
RTVSPropertyOp30
 70
     1
102
RTVSPropertyOp31
 70
     1
102
RTVSPropertyOp32
 70
     1
  0
XRECORD
  5
217
102
{ACAD_REACTORS
330
216
102
}
330
216
100
AcDbXrecord
280
     1
102
RTVSPropertyOp0
 70
     1
102
RTVSPropertyOp1
 70
     1
102
RTVSPropertyOp2
 70
     1
102
RTVSPropertyOp3
 70
     1
102
RTVSPropertyOp4
 70
     1
102
RTVSPropertyOp5
 70
     1
102
RTVSPropertyOp6
 70
     1
102
RTVSPropertyOp7
 70
     1
102
RTVSPropertyOp8
 70
     1
102
RTVSPropertyOp9
 70
     1
102
RTVSPropertyOp10
 70
     1
102
RTVSPropertyOp11
 70
     1
102
RTVSPropertyOp12
 70
     1
102
RTVSPropertyOp13
 70
     1
102
RTVSPropertyOp14
 70
     1
102
RTVSPropertyOp15
 70
     1
102
RTVSPropertyOp16
 70
     1
102
RTVSPropertyOp17
 70
     1
102
RTVSPropertyOp18
 70
     1
102
RTVSPropertyOp19
 70
     1
102
RTVSPropertyOp20
 70
     1
102
RTVSPropertyOp21
 70
     1
102
RTVSPropertyOp22
 70
     1
102
RTVSPropertyOp23
 70
     1
102
RTVSPropertyOp24
 70
     1
102
RTVSPropertyOp25
 70
     1
102
RTVSPropertyOp26
 70
     1
102
RTVSPropertyOp27
 70
     1
102
RTVSPropertyOp28
 70
     1
102
RTVSPropertyOp29
 70
     1
102
RTVSPropertyOp30
 70
     1
102
RTVSPropertyOp31
 70
     1
102
RTVSPropertyOp32
 70
     1
  0
XRECORD
  5
219
102
{ACAD_REACTORS
330
218
102
}
330
218
100
AcDbXrecord
280
     1
102
RTVSPropertyOp0
 70
     1
102
RTVSPropertyOp1
 70
     1
102
RTVSPropertyOp2
 70
     1
102
RTVSPropertyOp3
 70
     1
102
RTVSPropertyOp4
 70
     1
102
RTVSPropertyOp5
 70
     1
102
RTVSPropertyOp6
 70
     1
102
RTVSPropertyOp7
 70
     1
102
RTVSPropertyOp8
 70
     1
102
RTVSPropertyOp9
 70
     1
102
RTVSPropertyOp10
 70
     1
102
RTVSPropertyOp11
 70
     1
102
RTVSPropertyOp12
 70
     1
102
RTVSPropertyOp13
 70
     1
102
RTVSPropertyOp14
 70
     1
102
RTVSPropertyOp15
 70
     1
102
RTVSPropertyOp16
 70
     1
102
RTVSPropertyOp17
 70
     1
102
RTVSPropertyOp18
 70
     1
102
RTVSPropertyOp19
 70
     1
102
RTVSPropertyOp20
 70
     1
102
RTVSPropertyOp21
 70
     1
102
RTVSPropertyOp22
 70
     1
102
RTVSPropertyOp23
 70
     1
102
RTVSPropertyOp24
 70
     1
102
RTVSPropertyOp25
 70
     1
102
RTVSPropertyOp26
 70
     1
102
RTVSPropertyOp27
 70
     1
102
RTVSPropertyOp28
 70
     1
102
RTVSPropertyOp29
 70
     1
102
RTVSPropertyOp30
 70
     1
102
RTVSPropertyOp31
 70
     1
102
RTVSPropertyOp32
 70
     1
  0
XRECORD
  5
21B
102
{ACAD_REACTORS
330
21A
102
}
330
21A
100
AcDbXrecord
280
     1
102
RTVSPropertyOp0
 70
     1
102
RTVSPropertyOp1
 70
     1
102
RTVSPropertyOp2
 70
     1
102
RTVSPropertyOp3
 70
     1
102
RTVSPropertyOp4
 70
     1
102
RTVSPropertyOp5
 70
     1
102
RTVSPropertyOp6
 70
     1
102
RTVSPropertyOp7
 70
     1
102
RTVSPropertyOp8
 70
     1
102
RTVSPropertyOp9
 70
     1
102
RTVSPropertyOp10
 70
     1
102
RTVSPropertyOp11
 70
     1
102
RTVSPropertyOp12
 70
     1
102
RTVSPropertyOp13
 70
     1
102
RTVSPropertyOp14
 70
     1
102
RTVSPropertyOp15
 70
     1
102
RTVSPropertyOp16
 70
     1
102
RTVSPropertyOp17
 70
     1
102
RTVSPropertyOp18
 70
     1
102
RTVSPropertyOp19
 70
     1
102
RTVSPropertyOp20
 70
     1
102
RTVSPropertyOp21
 70
     1
102
RTVSPropertyOp22
 70
     1
102
RTVSPropertyOp23
 70
     1
102
RTVSPropertyOp24
 70
     1
102
RTVSPropertyOp25
 70
     1
102
RTVSPropertyOp26
 70
     1
102
RTVSPropertyOp27
 70
     1
102
RTVSPropertyOp28
 70
     1
102
RTVSPropertyOp29
 70
     1
102
RTVSPropertyOp30
 70
     1
102
RTVSPropertyOp31
 70
     1
102
RTVSPropertyOp32
 70
     1
  0
XRECORD
  5
21D
102
{ACAD_REACTORS
330
21C
102
}
330
21C
100
AcDbXrecord
280
     1
102
RTVSPropertyOp0
 70
     1
102
RTVSPropertyOp1
 70
     1
102
RTVSPropertyOp2
 70
     1
102
RTVSPropertyOp3
 70
     1
102
RTVSPropertyOp4
 70
     1
102
RTVSPropertyOp5
 70
     1
102
RTVSPropertyOp6
 70
     1
102
RTVSPropertyOp7
 70
     1
102
RTVSPropertyOp8
 70
     1
102
RTVSPropertyOp9
 70
     1
102
RTVSPropertyOp10
 70
     1
102
RTVSPropertyOp11
 70
     1
102
RTVSPropertyOp12
 70
     1
102
RTVSPropertyOp13
 70
     1
102
RTVSPropertyOp14
 70
     1
102
RTVSPropertyOp15
 70
     1
102
RTVSPropertyOp16
 70
     1
102
RTVSPropertyOp17
 70
     1
102
RTVSPropertyOp18
 70
     1
102
RTVSPropertyOp19
 70
     1
102
RTVSPropertyOp20
 70
     1
102
RTVSPropertyOp21
 70
     1
102
RTVSPropertyOp22
 70
     1
102
RTVSPropertyOp23
 70
     1
102
RTVSPropertyOp24
 70
     1
102
RTVSPropertyOp25
 70
     1
102
RTVSPropertyOp26
 70
     1
102
RTVSPropertyOp27
 70
     1
102
RTVSPropertyOp28
 70
     1
102
RTVSPropertyOp29
 70
     1
102
RTVSPropertyOp30
 70
     1
102
RTVSPropertyOp31
 70
     1
102
RTVSPropertyOp32
 70
     1
  0
XRECORD
  5
231
102
{ACAD_REACTORS
330
230
102
}
330
230
100
AcDbXrecord
280
     1
102
RTVSPropertyOp0
 70
     1
102
RTVSPropertyOp1
 70
     1
102
RTVSPropertyOp2
 70
     1
102
RTVSPropertyOp3
 70
     1
102
RTVSPropertyOp4
 70
     1
102
RTVSPropertyOp5
 70
     1
102
RTVSPropertyOp6
 70
     1
102
RTVSPropertyOp7
 70
     1
102
RTVSPropertyOp8
 70
     1
102
RTVSPropertyOp9
 70
     1
102
RTVSPropertyOp10
 70
     1
102
RTVSPropertyOp11
 70
     1
102
RTVSPropertyOp12
 70
     1
102
RTVSPropertyOp13
 70
     1
102
RTVSPropertyOp14
 70
     1
102
RTVSPropertyOp15
 70
     1
102
RTVSPropertyOp16
 70
     1
102
RTVSPropertyOp17
 70
     1
102
RTVSPropertyOp18
 70
     1
102
RTVSPropertyOp19
 70
     1
102
RTVSPropertyOp20
 70
     1
102
RTVSPropertyOp21
 70
     1
102
RTVSPropertyOp22
 70
     1
102
RTVSPropertyOp23
 70
     1
102
RTVSPropertyOp24
 70
     1
102
RTVSPropertyOp25
 70
     1
102
RTVSPropertyOp26
 70
     1
102
RTVSPropertyOp27
 70
     1
102
RTVSPropertyOp28
 70
     1
102
RTVSPropertyOp29
 70
     1
102
RTVSPropertyOp30
 70
     1
102
RTVSPropertyOp31
 70
     1
102
RTVSPropertyOp32
 70
     1
  0
XRECORD
  5
227
102
{ACAD_REACTORS
330
226
102
}
330
226
100
AcDbXrecord
280
     1
102
RTVSPropertyOp0
 70
     1
102
RTVSPropertyOp1
 70
     1
102
RTVSPropertyOp2
 70
     1
102
RTVSPropertyOp3
 70
     1
102
RTVSPropertyOp4
 70
     1
102
RTVSPropertyOp5
 70
     1
102
RTVSPropertyOp6
 70
     1
102
RTVSPropertyOp7
 70
     1
102
RTVSPropertyOp8
 70
     1
102
RTVSPropertyOp9
 70
     1
102
RTVSPropertyOp10
 70
     1
102
RTVSPropertyOp11
 70
     1
102
RTVSPropertyOp12
 70
     1
102
RTVSPropertyOp13
 70
     1
102
RTVSPropertyOp14
 70
     1
102
RTVSPropertyOp15
 70
     1
102
RTVSPropertyOp16
 70
     1
102
RTVSPropertyOp17
 70
     1
102
RTVSPropertyOp18
 70
     1
102
RTVSPropertyOp19
 70
     1
102
RTVSPropertyOp20
 70
     1
102
RTVSPropertyOp21
 70
     1
102
RTVSPropertyOp22
 70
     1
102
RTVSPropertyOp23
 70
     1
102
RTVSPropertyOp24
 70
     1
102
RTVSPropertyOp25
 70
     1
102
RTVSPropertyOp26
 70
     1
102
RTVSPropertyOp27
 70
     1
102
RTVSPropertyOp28
 70
     1
102
RTVSPropertyOp29
 70
     1
102
RTVSPropertyOp30
 70
     1
102
RTVSPropertyOp31
 70
     1
102
RTVSPropertyOp32
 70
     1
  0
XRECORD
  5
22F
102
{ACAD_REACTORS
330
22E
102
}
330
22E
100
AcDbXrecord
280
     1
102
RTVSPropertyOp0
 70
     1
102
RTVSPropertyOp1
 70
     1
102
RTVSPropertyOp2
 70
     1
102
RTVSPropertyOp3
 70
     1
102
RTVSPropertyOp4
 70
     1
102
RTVSPropertyOp5
 70
     1
102
RTVSPropertyOp6
 70
     1
102
RTVSPropertyOp7
 70
     1
102
RTVSPropertyOp8
 70
     1
102
RTVSPropertyOp9
 70
     1
102
RTVSPropertyOp10
 70
     1
102
RTVSPropertyOp11
 70
     1
102
RTVSPropertyOp12
 70
     1
102
RTVSPropertyOp13
 70
     1
102
RTVSPropertyOp14
 70
     1
102
RTVSPropertyOp15
 70
     1
102
RTVSPropertyOp16
 70
     1
102
RTVSPropertyOp17
 70
     1
102
RTVSPropertyOp18
 70
     1
102
RTVSPropertyOp19
 70
     1
102
RTVSPropertyOp20
 70
     1
102
RTVSPropertyOp21
 70
     1
102
RTVSPropertyOp22
 70
     1
102
RTVSPropertyOp23
 70
     1
102
RTVSPropertyOp24
 70
     1
102
RTVSPropertyOp25
 70
     1
102
RTVSPropertyOp26
 70
     1
102
RTVSPropertyOp27
 70
     1
102
RTVSPropertyOp28
 70
     1
102
RTVSPropertyOp29
 70
     1
102
RTVSPropertyOp30
 70
     1
102
RTVSPropertyOp31
 70
     1
102
RTVSPropertyOp32
 70
     1
  0
ENDSEC
  0
EOF
